PrimaNota.ru - самый крупный в мире бесплатный архив песенных текстов, аккордов, табулатур и нот


White Stripes - Hardest Button To Button Live - таба, видео

Регистрация Запомнить меня
Войти через:  Facebook Google Twitter Vk Yandex Mail.ru

White Stripes - Hardest Button To Button Live - таба, видео

Печатать
Просмотров: 130
||||||||||||||||||||||||||||
||Hardest Button To Button||
||||||||||||||||||||||||||||

The White Stripes
Jack White

 /My Amp Settings:(these are based on the live show 'Under Blackpool Lights')
 |Gain:   8
 |Bass:   8
 |Middle: 7
 |Treble: 7
 |
 |I use a overdrive pedal (Cool overdrive OD-100)
 |Level: 5
 |Low:   10
 |High   6
 |Gain:  8
 |
 |I play this on a 'Gibson Les Paul' on the Neck Pickup. I change the tone to
 \my liking, depends on how hard i want to play.

Live he sometimes plays along with the bass drum. I don't exactly know what he plays but 
i guess this sounds pretty cool, but it's not necessary to play this.

Bass Drum
e|----------------------------|----------------------------|
B|----------------------------|----------------------------|
G|----------------------------|----------------------------|
D|----------------------------|----------------------------|
A|----------------------------|----------------------------|
E|-5--5--5--5--5--5--5h7p5h7--|-5--5--5--5--5--5--5p3-3h5--|

Verse
e|---------------------------------------------------------------|
B|---------------------------------------------------------------|
G|---2------5------2------5------2------5------4------7----------|
D|----2------5------2------5------2------5------4------7---------|
A|-0---0--3---3--0---0--3---3--0---0--3---3--2---2--5---5--------|
E|---------------------------------------------------------------|

At the end of each verse you can change the last part to this:
e|--------------------------------|
B|--------------------------------|
G|---4---4----------7----7--------|
D|----4---4--2-------7-----7--7---|
A|-2---2---2------5---5-----5-----|
E|--------------------------------|

At some points he plays this. (Listen to the song to know when)
e|---------------------------------------|
B|---------------------------------------|
G|-2-2-2-2--5-5-5-5-4-4-4-4-3-3-3-3------|
D|-2-2-2-2--5-5-5-5-4-4-4-4-3-3-3-3------|
A|-0-0-0-0--3-3-3-3-2-2-2-2-1-1-1-1------|
E|---------------------------------------|

Chorus
e|---------------------------------------------------------------------------|
B|---------------------------------------------------------------------------|
G|-2-2-2-2--5-5-5-5--2-2-2-2--5-5-5-5--2-2-2-2--5-5-5-5--4-4-4-4--3-3-3-3----|
D|-2-2-2-2--5-5-5-5--2-2-2-2--5-5-5-5--2-2-2-2--5-5-5-5--4-4-4-4--3-3-3-3----|
A|-0-0-0-0--3-3-3-3--0-0-0-0--3-3-3-3--0-0-0-0--3-3-3-3--2-2-2-2--1-1-1-1----|
E|---------------------------------------------------------------------------|

Hope you like it ;D
Добавлено: 25.01.2014
Другие материалы по этой песне:
  • Аккорды и текст

Страница создана 25.01.2014
http://primanota.ru/white-stripes/hardest-button-to-button-live-chords.htm
Привет, Гость.
Предлагаем пройти революционный курс по гитаре.
Подарок от PrimaNota.Ru, забирай!