PrimaNota.ru - самый крупный в мире бесплатный архив песенных текстов, аккордов, табулатур и нот


White Stripes - Fell in love with a girl tabs - таба, видео

Регистрация Запомнить меня
Войти через:  Facebook Google Twitter Vk Yandex Mail.ru

White Stripes - Fell in love with a girl tabs - таба, видео

Печатать
Просмотров: 262


e)------------------------------------------------------(
b)------------------------------------------------------(
g)------4---4-4--4-4---2---2-2--2-2---7---7-7--7-7-----(
d)------4---4-4--4-4---2---2-2--2-2---7---7-7--7-7-----(
a)------2---2-2--2-2---0---0-0--0-0---5---5-5--5-5-----(
E)------------------------------------------------------(

)-----------------------------R
)-----------------------------E
)-----------------------------P
)--2---2-2--2-0---------------E
)--2---2-2--2-0---------------A
)--0---0-0--0-0---------------T


(Use That For The Verses amp; chorus) repeat


(Use this below for the part before the chorus)

REPEAT TWICE
2ND TIME THRU ONLY PLAY ONE   007750

DO THE SAME THING EXEPT DO NOT PLAY THE 004420,
INSTEAD PLAY 000442 AT THE BEGINING


Добавлено: 20.08.2013
Другие материалы по этой песне:
  • Аккорды и текст

Страница создана 20.08.2013
http://primanota.ru/white-stripes/fell-in-love-with-a-girl-tabs-chords.htm
Привет, Гость.
Предлагаем пройти революционный курс по гитаре.
Подарок от PrimaNota.Ru, забирай!