PrimaNota.ru - самый крупный в мире бесплатный архив песенных текстов, аккордов, табулатур и нот


White Stripes - Cold Cold Night - текст песни, таба, бас-таба, видео

Регистрация Запомнить меня
Войти через:  Facebook Google Twitter Vk Yandex Mail.ru

White Stripes - Cold Cold Night - текст песни, таба, бас-таба, видео

Печатать
Просмотров: 183
Artist - The White Stripes
Album - Elephant
Song Title - Cold, Cold Night
Tabber - Rainor Trippett (rad_fugi@hotmail.com)

This song is an absolute corker, with Meg White sepping out
from behind the drum kit to front this one.

Easy as pie folks.

This song involves just one main riff, which makes up the
verse and chorus main structure with linking pieces in between.

Main Riff

e--|--------------------------------------------|
B--|--------------------------------------------|
G--|----5h7-xx---7h10-xx---10h12-xx---12h14-xx--|
D--|--------------------------------------------|
A--|--------------------------------------------|
E--|--------------------------------------------|


Verse End/Pre Chrous

e--|----------------------------|
B--|----------------------------|
G--|----------------------------|
D--|------5h7~~~~-----7h5~~~~---|
A--|----------------------------|
E--|----------------------------|


1st Bridge

e--|--------------------------------------------|
B--|--------------------------------6h8----6h8--|
G--|----5h7----5h7----5h7----5h7----------------|
D--|--------------------------------------------|
A--|--------------------------------------------|
E--|--------------------------------------------|

e--|--------------------------------|
B--|--------------------------------|
G--|---5h7----5h7-------------------|
D--|-----------------5h7----7h5-----|
A--|--------------------------------|
E--|--------------------------------|


2nd Bridge

      D     C   Asus  D    C   Asus  D     C   Asus

e--|------------0--------------0---------------0----|
B--|------------0--------------0---------------0----|
G--|--7--7--55--2-----7-7--55--2-----7--7--55--2----|
D--|--7--7--55--2-----7-7--55--2-----7--7--55--2----|
A--|--5--5--33--0-----5-5--33--0-----5--5--33--0----|
E--|------------------------------------------------|

      G    F

e--|--3----1---|
B--|--3----1---|
G--|--4----2---|
D--|--5----3---|
A--|--5----3---|
E--|--3----1---|

Ending Chord


e--|----7----|
B--|----x----|
G--|----7----|
D--|---------|
A--|---------|
E--|---------|


Song Structure

Intro - Main Riff x2

Verse 1 - Main Riff x3

Verse Ending/Pre Chorus x1

Chorus - Main Riff x3

Verse 2 - Main Riff x3

Verse Ending/Pre Chorus x1

1st Bridge x1

Chorus - Main Riff x3

Verse Ending/Pre Chorus x1

Verse - Main Riff x3 (Instrumental)

Verse Ending/Pre Chorus x1

Main Riff x2

Verse 3 - Main Riff x3

Verse Ending/Pre Chorus x1

Chorus - Main Riff x2

2nd Bridge x1

Chorus - Main Riff x3

Ending.




I hope that was easy enough to understand, Email me
with any corrections.

Enjoy.
     
Добавлено: 05.10.2013
Другие материалы по этой песне:

Страница создана 01.06.2012
http://primanota.ru/white-stripes/cold-cold-night-chords.htm
Привет, Гость.
Предлагаем пройти революционный курс по гитаре.
Подарок от PrimaNota.Ru, забирай!