PrimaNota.ru - самый крупный в мире бесплатный архив песенных текстов, аккордов, табулатур и нот


White Lion - Till Death Do Us - бас-таба, видео

Регистрация Запомнить меня
Войти через:  Facebook Google Twitter Vk Yandex Mail.ru

White Lion - Till Death Do Us - бас-таба, видео

Печатать
Просмотров: 88
Verse
G|-------------------------------------------------------------------|
D|--------------------------------------12---10----------------------|
A|---------------12----14-11------8—10-----8-----6-5-3-1-------------|
E|---12PI13----------------------8-----------------------------------|
Chorus:
G|---------------------------------------------------------------------|
D|---------------------------------------------------------0-1-3-------|
A|---1-1-------------------------------------0-0-1-3-3----------1------|
E|----------1---1-1----3---3-3---1—1-3---------------------------------|

G|-----------------------------------------------|
D|-----------------------------------------------|
A|---1-1------------------------6---6-8---8------|
E|---------1---1-1----3---3-3--------------------|

Verse 2:
G|--------------------------------------------------------------------------|
D|----------------3S5-3-----------------------------12---10-10S13--13-12-10-|
A|-------------6-------------1---13-12----8---10--10----8-------------------|
E|-6---5---4--------------1--------------8----------------------------------|

Bridge:
G|-----------------------------------------------------|
D|-----------------------------------------------------|
A|---4-------------4--------------4-3-1---------4------|
E|------4-2---2-4----4-2---2-4---------4-2-4-----------|

G|------------------8-------------------------------------------------------|
D|------------6PI8---8----------------6-------------------------------------|
A|--3-4-5-6------------6-------4PI6---6----------------5-7-8----------------|
E|--------------------------6—4-----------4-5—5-7-8----------8S1-1----------|

Pi- Pull in
S- Slide

Tabbed by: zildjohn
Sagato2001@yahoo.com

Добавлено: 15.08.2013
Другие материалы по этой песне:

Страница создана 25.05.2012
http://primanota.ru/white-lion/till-death-do-us-chords.htm
Привет, Гость.
Предлагаем пройти революционный курс по гитаре.
Подарок от PrimaNota.Ru, забирай!