PrimaNota.ru - самый крупный в мире бесплатный архив песенных текстов, аккордов, табулатур и нот


White Lion - Lonely Nights - текст песни, таба, видео

Регистрация Запомнить меня
Войти через:  Facebook Google Twitter Vk Yandex Mail.ru

White Lion - Lonely Nights - текст песни, таба, видео

Печатать
Просмотров: 141
Авторы: Mike Tramp, Vito Bratta

I added on and made some corrections to this tab. hope you like it.
This tab is about 95% correct.

Tuning: Standard 

Intro:

         p.m.------|          p.m.------|
e|------------------------------------------------------------------------|
B|------------------------------------------------------------------------|
G|------------------------------------------------------------------------|
D|-2-4-5---------------5--7--9--------------9--7--5--4-------4---5----7---|
A|-2-------------------7--9--10-------------10-9--7--5-----5---7----9-----|
E|-0---------0-0-0-0--------------0-0-0-0---------------------------------|

         p.m.------|            p.m.------|
e|------------------------------------------------------------------------|
B|------------------------------------------------------------------------|
G|------------------------------------------------------------------------|
D|-2-4-5----------------5--7----9--------------9---7--5-------------------|
A|-2--------------------7---9---10-------------10--9--7-------------------|
E|-0---------0-0-0-0----------------0-0-0-0-------------------------------|



         p.m.------|          p.m.-------|
e|------------------------------------------------------------------------|
B|------------------------------------------------------------------------|
G|-2-4-5--------------5--7-9-------------------9--7-5-4------4-----5----7-|
D|-2------------------7--9-10------------------10-9-7-5----5----7-----9---|
A|-0--------0-0-0-0---------------0-0-0-0---------------------------------|
E|------------------------------------------------------------------------|

         p.m.-------|          p.m.-------|
e|------------------------------------------------------------------------|
B|------------------------------------------------------------------------|
G|-2--4-5---------------5--7--9---------------9--7--5---------------------|
D|-2--------------------7--9--10-------------10--9--7---------------------|
A|-0---------0-0-0-0---------------0-0-0-0--------------------------------|
E|------------------------------------------------------------------------|

e|------------------------------------------------------------------------|
B|------------------------------------------------------------------------|
G|------------------------------------------------------------------------|
D|--------------2--0------------------------------------------------------|
A|--------2------------3--2--0--------------------------------------------|
E|---0-4----4-------------------------------------------------------------|

Verse:

e|----------------------------------------------------------------------------|
B|----------------------------------------------------------------------------|
G|-9----------5----7--------9-----10-----9---------5--9--------9--10-12--9----|
D|-10---------7----9--------10----12-----10--------7--7--------10-12-14--10---|
A|-----0-0-0----------0-0-0----------0------0-0-0-------0-0-0-----------------|
E|----------------------------------------------------------------------------|

e|--------------------------------------------5-------------------------------|
B|--------------------------------------------5-------------------------------|
G|-------5--7--------9---10----------------------2--------5--7-------5--7----9|
D|-------7--9--------10--12---------0------2-----2--------3--5-------3--3----7|
A|0-0-0-------0-0-0------------0--3-----2--0-----0--0-0-0------0-0-0------0-0-|
E|---------------------------1--------3---------------------------------------|

e|---------------------------------------------------------------------------|
B|---------------------------------------------------------------------------|
G|------5-7---------------2---------5--7-------5--7-------------2--2p+-------|
D|------3-5---------------2---------3--5-------3--5-------0-----2------------|
A|0-0-0-----0-0-0-3-2-0---0---0-0-0------0-0-0--------0-3-----2-0------------|
E|----------------------3---------------------------1-------3----------------|

 Pre Chorus:
e|---------------------------------------------------------------------------|
B|-------------------------------------3--3----------------------------------|
G|---9---9--7-5-----------------7--5---0--2-----9---9--7-5-------------------|
D|---9---9--7-5-----------------7--5---0--0-----9---9--7-5-------------------|
A|---7---7--5-3----3-2-0---2----5--3------------7---7--5-3---3-2-0-----------|
E|0----------------------3---0---------3--2--0---------------------3-0-------|

e|---------------------------------------------------------------------------|
B|---------------------------------------------------------------------------|
G|----9-----7--------7------9\-----------------------------------------------|
D|--------7--------7------9-9\-----------------------------------------------|
A|-7----9------10------11----------------------------------------------------|
E|---------------------------------------------------------------------------|

Chorus:
      p.m.------|       p.m.------|
e|---------------------------------------------------------------------------|
B|---------------------------------------------------------------------------|
G|-2-4-5-----------5--7-9-----------9---7--5--4-----4---5---7----------------|
D|-2---------------7--9-10----------10--9--7--5---5---7---9------------------|
A|-0-----0-0-0-0-----------0-0-0-0-------------------------------------------|
E|---------------------------------------------------------------------------|
     p.m.-----|       p.m.------|
e|---------------------------------------------------------------------------|
B|---------------------------------------------------------------------------|
G|-2-4-5---------5--7--9-----------9---7--5--4-------------------------------|
D|-2-------------7--9--10----------10--9--7--5-----------2-0-----------------|
A|-0-----0-0-0-0-----------0-0-0-0-------------------2-------3-2-0-----------|
E|----------------------------------------------0--4---4---------------------|

Verse:
   p.m.--|    p.m.---|            p.m.---|                         p.m.----|
e|---------------------------------------------------------------------------|
B|---------------------------------------------------------------------------|
G|9--------5--7--------9---10----9---------5--7---------9---10----9----------|
D|10-------7--9--------10--12----10--------7--9---------10--12----10---------|
A|---0-0-0-------0-0-0---------0-----0-0-0-------0-0-0----------------0-0-0--|
E|---------------------------------------------------------------------------|

  p.m.----|                                
e|---------------------------------------------------------------------------|
B|---------------------------------------------------------------------------|
G|5-7--------9---10--------------2---0-2-0-2-0-2-0-2-0-2-0-2-0-2--2----------|
D|7-9--------10--12--------0-----2--------------------------------2----------|
A|----0-0-0------------0-3-----2-0--------------------------------0----------|
E|-------------------1-------3-----------------------------------------------|

p.m.--|    p.m.---|         p.m.---|                    p.m.---|   p.m.---|
e|------------------------------------------------------------------------------|
B|------------------------------------------------------------------------------|
G|------5--7--------5--7----9--------5--7----------------2--------5-7-------5-7-|
D|------3--5--------3--5----7--------3--5----------------2--------3-5-------3-5-|
A|0-0-0-------0-0-0-------0----0-0-0-------0-0-0-3-2-0---0--0-0-0-----0-0-0-----|
E|-----------------------------------------------------3------------------------|


e|---------------------------------------------------------------------------|
B|---------------------------------------------------------------------------|
G|--------------2---0wb------------------------------------------------------|
D|--------0-----2------------------------------------------------------------|
A|---0--3-----2-0------------------------------------------------------------|
E|-1--------3----------------------------------------------------------------|


 Pre Chorus:
e|---------------------------------------------------------------------------|
B|-------------------------------------3--3----------------------------------|
G|---9---9--7-5-----------------7--5---0--2-----9---9--7-5-------------------|
D|---9---9--7-5-----------------7--5---0--0-----9---9--7-5-------------------|
A|---7---7--5-3----3-2-0---2----5--3------------7---7--5-3---3-2-0-----------|
E|0----------------------3---0---------3--2--0---------------------3-0-------|

e|---------------------------------------------------------------------------|
B|---------------------------------------------------------------------------|
G|----9-----7--------7------9\-----------------------------------------------|
D|--------7--------7------9-9\-----------------------------------------------|
A|-7----9------10------11----------------------------------------------------|
E|---------------------------------------------------------------------------|

Chorus:
      p.m.------|       p.m.------|
e|---------------------------------------------------------------------------|
B|---------------------------------------------------------------------------|
G|-2-4-5-----------5--7-9-----------9---7--5--4-----4---5---7----------------|
D|-2---------------7--9-10----------10--9--7--5---5---7---9------------------|
A|-0-----0-0-0-0-----------0-0-0-0-------------------------------------------|
E|---------------------------------------------------------------------------|

     p.m.-----|       p.m.------|
e|---------------------------------------------------------------------------|
B|---------------------------------------------------------------------------|
G|-2-4-5---------5--7--9-----------9---7--5--4-------------------------------|
D|-2-------------7--9--10----------10--9--7--5-------------------------------|
A|-0-----0-0-0-0-----------0-0-0-0-------------------------------------------|
E|---------------------------------------------------------------------------|

Please Rate and comment.
************************************

| /   slide up
| \   slide down
| h   hammer-on
| p   pull-off
| ~   vibrato
| +   harmonic
| x   Mute note
| b   Bend
| pb  Pre-bend
| br  Bend release
| pbr Pre-bend release
| brb Bend release bend
| p+  Pinch Harmonic
| p.m. Palm Mute
| wb   Whammy Bar
Добавлено: 14.03.2012
Другие материалы по этой песне:

Страница создана 14.03.2012
http://primanota.ru/white-lion/lonely-nights-chords.htm
Привет, Гость.
Предлагаем пройти революционный курс по гитаре.
Подарок от PrimaNota.Ru, забирай!