PrimaNota.ru - самый крупный в мире бесплатный архив песенных текстов, аккордов, табулатур и нот


White Lion - All Join Our Hands - текст песни, таба, видео

Регистрация Запомнить меня
Войти через:  Facebook Google Twitter Vk Yandex Mail.ru

White Lion - All Join Our Hands - текст песни, таба, видео

Печатать
Просмотров: 63
Авторы: Mike Tramp, Vito Bratta

-------------------------------------------------------------------------------
                             All Join Our Hands - White Lion
-------------------------------------------------------------------------------

Tuning: Standard Tuning

* this also means to Palm Mute

INTRO:

                                  |-----p.m.--|
e|---------------------------------------------------------------------------|
B|13-12---13-12--13-12--13-12\----------------------------12----12\-8--------|
G|-----------------------------7h9p7------7-------9---9-x-9------9\-7--------|
D|-----------------------------------9------9-----9---9-x-9------------------|
A|-------------------------------------10-----10-----------------------------|
E|---------------------------------------------------------------------------|
   |-p.m.----|
e|------------------------------------5h7h8-7--------------------------------|
B|8-7-------8-------------------5h7h8----------------------12-----12\\-8-----|
G|----5---5----9----------4h5h7----------------9---x-x-9-x-9-------9\\-7-----|
D|------7------9----4h5h7----------------------9---x-x-9-x-9-----------------|
A|---------------------------------------------------------------------------|
E|---------------------------------------------------------------------------|

e|5--------------------------------------------------------------------------|
B|7-----8p7---9--------------------------------------------------------------|
G|--5-------7-9-----+14fbrfb~~-----------------------------------------------|
D|----7----------------------------------------------------------------------|
A|---------------------------------------------------------------------------|
E|---------------------------------------------------------------------------|


VERSE:

        Children crying       from the heat            Don't they know they belong
e|-------------------------------------------------------------------------------------|
B|-------------------------------------------------------------------------------------|
G|7\-------------------7-6---------------------6-5----------------------5---9----7-7-7-|
D|5\-------------------5-5---------------------5-5----------------------5---9----7-7-7-|
A|-------------------------------------------------------------------------------------|
E|-----0--0-0-0--0-0---------0-0-0--0-0-0--0-0-------0-0-0--0-0-0--0-0-----------------|
       *  * * *  * *         * * *  * * *  * *       * * *  * * *  * *

    People fighting        can't compete          Don't they know that they're wrong
e|---------------------------------------------------------------------------------------|
B|---------------------------------------------------------------------------------------|
G|7\-------------------7-6--------------------6-5-------------------------5----9------7-7|
D|5\-------------------5-5--------------------5-5-------------------------5----9------7-7|
A|---------------------------------------------------------------------------------------|
E|-----0--0-0-0--0-0--------0-0-0--0-0-0--0-0-------0-0-0--0-0-0--0-0--------------------|
       *  * * *  * *        * * *  * * *  * *       * * *  * * *  * *

 PRE-CHORUS:

 Time is standing  Still all around         Yes time takes us on a trip
e|-----------------------------5---------------------------------------------------------|
B|----------3--------------3---------------1---------------------5-6--5--------5h6p5-----|
G|-------0--------------2----------------------------------------5-5----5----5-------5---|
D|----0-------------/4-----------------3-------------------------5-5------5------------5-|
A|-2------------------------------0-3----------------------------------------------------|
E|---------------------------------------------------------------------------------------|

            Pictures of a dream   All it does is cloud all the lies
e|--------------------------5------------------------------------------------------------|
B|------3--------------3-------------------1--------5---6-------5------7--8--7-----------|
G|----0-------------2-------------------------------5---5-------5------7--7--7-----------|
D|--0-----------/4----------------------3-----------5---5-------5------7--7--7-----------|
A|2-------------------------------0--3---------------------------------------------------|
E|---------------------------------------------------------------------------------------|

CHORUS:

   let's all join our hands    Raise them together  fight for the lives that are real
e|-----------------------------------------------------------------------------------------|
B|-----------------------------------------------------------------------------------------|
G|--------7---7----7----7-------9-----9---7---5-------7-------------7----------------------|
D|--------5---5----5----7-------9-----9---7---5-------5-------------7----------------------|
A|-----------------------------------------------------------------------------------------|
E|2-----------------------------------------------------------------------------------0-0-0|
                                                                                         
                                                                                 * * *
                       lets all join our hands  Raise them together
e|12-----------12----------------------------------------------------------------|
B|12-----------12----------------------------------------------------------------|
G|---12~----------12----------7---7---7----7------9-----9---7--5-----------------|
D|----------------------------5---5---5----7------9-----9---7--5-----------------|
A|-------------------------------------------------------------------------------|
E|-------0-0-0-------------------------------------------------------------------|
                 * * *
  fight for the right that we feel                           |p.m.|
e|-------------------------------------------------------------------------------|
B|------------------------------------------12--12\-8------7-------7-8p7---------|
G|-7-------------7-------------x-9--x-x-9-x-9----9\-7--------7---7-------7-9-----|
D|-5-------------7-------------x-9--x-x-9-x--------------------7-----------9-----|
A|-------------------------------------------------------------------------------|
E|-------------------------------------------------------------------------------|

e|----------------------------|
B|----------------------------|
G|----------------------4h5-4-|
D|----------------4h5h7-------|
A|--------2h3h5/7-------------|
E|0h2h3h5---------------------|

VERSE 2:

        Nations plan           hearts are weak          Don't they know  we  belong
e|-------------------------------------------------------------------------------------|
B|-------------------------------------------------------------------------------------|
G|7\-------------------7-6---------------------6-5----------------------5---9----7-7-7-|
D|5\-------------------5-5---------------------5-5----------------------5---9----7-7-7-|
A|-------------------------------------------------------------------------------------|
E|-----0--0-0-0--0-0---------0-0-0--0-0-0--0-0-------0-0-0--0-0-0--0-0-----------------|
       *  * * *  * *         * * *  * * *  * *       * * *  * * *  * *

    Years of growing       reach the peak         Don't they know that they're wrong
e|---------------------------------------------------------------------------------------|
B|---------------------------------------------------------------------------------------|
G|7\-------------------7-6--------------------6-5-------------------------5----9------7-7|
D|5\-------------------5-5--------------------5-5-------------------------5----9------7-7|
A|---------------------------------------------------------------------------------------|
E|-----0--0-0-0--0-0--------0-0-0--0-0-0--0-0-------0-0-0--0-0-0--0-0--------------------|
       *  * * *  * *        * * *  * * *  * *       * * *  * * *  * *
Life surrounds us  in many different ways  All we see are switches there to take it all away
e|-----------------------------5---------------------------------------------------------|
B|----------3--------------3---------------1---------------------5-6--5--------5h6p5-----|
G|-------0--------------2----------------------------------------5-5----5----5-------5---|
D|----0------------/4------------------3-------------------------5-5------5------------5-|
A|-2------------------------------0-3----------------------------------------------------|
E|---------------------------------------------------------------------------------------|

                        Pieces of a dream     All it does is cloud all the lies
e|--------------------------5------------------------------------------------------------|
B|------3--------------3-------------------1--------5---6-------5------7--8--7-----------|
G|----0-------------2-------------------------------5---5-------5------7--7--7-----------|
D|--0-----------/4----------------------3-----------5---5-------5------7--7--7-----------|
A|2-------------------------------0--3---------------------------------------------------|
E|---------------------------------------------------------------------------------------|

CHORUS:

 let's all join our hands    Raise them together  fight for the lives that are real
e|-----------------------------------------------------------------------------------------|
B|-----------------------------------------------------------------------------------------|
G|--------7---7----7----7-------9-----9---7---5-------7-------------7----------------------|
D|--------5---5----5----7-------9-----9---7---5-------5-------------7----------------------|
A|-----------------------------------------------------------------------------------------|
E|2----------------------------------------------------------------------------------------|
                                          lets all join our hands  Raise them together
e|-----------------------------------------------------------------------------------|
B|------------------------+5-+5------------------------------------------------------|
G|---------+5-+5-+5-+5-+5-------+5-+5-+5--------7---7----7----7------9-----9---7--5--|
D|-+5-+5-+5-------------------------------------5---5----5----7------9-----9---7--5--|
A|-----------------------------------------------------------------------------------|
E|-----------------------------------------------------------------------------------|

 fight for the right that we feel                           
e|-----------------------------------------------------------------------------|
B|---------------------------------13-12~---13-12~----13-12~---13-12~-------5--|
G|-7-------------7----------------------------------------------------------4--|
D|-5-------------7-------------------------------------------------------------|
A|--------------------------------------------------------------------12\------|
E|--------------------------------------------------------------------12\------|

INTERLUDE:

e|5----------------5--------5-------5----------------5--------5-------5-------5---|
B|5------------------5--------5-----------5----------5----------5-------5---------|
G|6----------------------6--------6-------4----------6--------------6-------6-----|
D|7--------------------4--------7-----7---6----------7------------4-------7-----7-|
A|--------------------------------------------------------------------------------|
E|--------------------------------------------------------------------------------|

e|---------0-|
B|---------0-|
G|5----------| 2x
D|4----------|
A|6----------|
E|---3-2-0---|


SOLO:

e|---------------------------------------------------------------------------------|
B|-----------------------------5-6-5----------------------------------5-6-5--7-8-7-|
G|0--2--4------0--2----0-2-----5-5-5-------0--2--4-----0--2----0-2----5-5-5--7-7-7-|
D|---------4---------3---------5-5-5---------------4--------3---------5-5-5--7-7-7-|
A|---------------------------------------------------------------------------------|
E|---------------------------------------------------------------------------------|

CHORUS:

Let's all join our hands, raise them together
Fight for the lives that are real
Let's all join our hands

       raise them together  Fight for the right that we feel
e|--------------------------------------------------------------------------------|
B|--------------------------------------------------------------------------------|
G|--------9----9-----7--5----7--------------7-----------------x-x-7/9-x-9--9/11---|
D|--------9----9-----7--5----5--------------7-----------------x-x-----x-----------|
A|12\-------------------------------------------------------------5/7-x-7--7/9----|
E|12\-----------------------------------------------------------------------------|

e|---------------------------------------------------------------------------|
B|-----------------------------12---12---12----10----13----13----12----10----|
G|x-11-11/12--x--12--12/14-----14fb-14fb-10fb--12fb--15fb--15fb--14fb--12fb--|
D|x-----------x--------------------------------------------------------------|
A|x-9---9/10--x--10--10/12---------------------------------------------------|
E|---------------------------------------------------------------------------|

e|---------------------------------------------------------------------------|
B|12---12---12------15----15fbr--12h15--15-12-15-----------------------------|
G|14fb-14fb-14fb----17fb--------------------------14p12-0--+3----------------|
D|---------------------------------------------------------------------------|
A|---------------------------------------------------------------------------|
E|---------------------------------------------------------------------------|

 let's all join our hands    Raise them together  fight for the lives that are real
e|-----------------------------------------------------------------------------------------|
B|-----------------------------------------------------------------------------------------|
G|--------7---7----7----7-------9-----9---7---5-------7-------------7----------------------|
D|--------5---5----5----7-------9-----9---7---5-------5-------------7----------------------|
A|-----------------------------------------------------------------------------------------|
E|2----------------------------------------------------------------------------------------|

e|---------------------------------------------------------------------------|
B|--13-12---13-12---13-12--13-12---------------------------------------------|
G|-----------------------------------------------------9\--------------------|
D|-----------------------------------0h2p0----2p0------9\--------------------|
A|-----------------------------------------------------7\--------------------|
E|0-------0-------0------0-----------------3p0----0--------------------------|

PLEASE RATE AND COMMENT

************************************

| /   slide up
| \   slide down
| h   hammer-on
| p   pull-off
| ~   vibrato
| +   harmonic
| x   Mute note
| b   Bend
| pb  Pre-bend
| br  Bend release
| pbr Pre-bend release
| brb Bend release bend

************************************
Добавлено: 29.10.2013
Другие материалы по этой песне:

Страница создана 10.05.2012
http://primanota.ru/white-lion/all-join-our-hands-chords.htm
Привет, Гость.
Предлагаем пройти революционный курс по гитаре.
Подарок от PrimaNota.Ru, забирай!