PrimaNota.ru - самый крупный в мире бесплатный архив песенных текстов, аккордов, табулатур и нот


White Lies - Peace And Quiet - таба, видео

Регистрация Запомнить меня
Войти через:  Facebook Google Twitter Vk Yandex Mail.ru

White Lies - Peace And Quiet - таба, видео

Печатать
Просмотров: 137
----------------------------------------------------------------------------
                         PEACE & QUIET - White Lies
----------------------------------------------------------------------------
Tabbed by: Ross Adamson


Tuning: Standard

Intro/Verse

e|------------------------------------------------|
B|------------------------------------------------|
G|--5--7--9--10--14----12----10--9--7-------------|
D|------------------------------------------------|
A|------------------------------------------------|
E|------------------------------------------------|

Chorus

e|--5--5-----8---7--------------------------------|
B|--6--5-----10--8--------------------------------|
G|--5--5-----9---7--------------------------------|
D|------------------------------------------------|
A|------------------------------------------------|
E|------------------------------------------------|

Bridge

e|-------------------------------------------------|
B|-------------------------------------------------|
G|-----2-----5-----9-----7--5--7--5--4-------------|
D|--3-----5-----7-----7----------------------------|
A|-------------------------------------------------|
E|-------------------------------------------------|
Добавлено: 10.05.2012
Другие материалы по этой песне:
  • Аккорды и текст

Страница создана 10.05.2012
http://primanota.ru/white-lies/peace-and-quiet-chords.htm
Привет, Гость.
Предлагаем пройти революционный курс по гитаре.
Подарок от PrimaNota.Ru, забирай!