PrimaNota.ru - самый крупный в мире бесплатный архив песенных текстов, аккордов, табулатур и нот


White Denim - Come Back - таба, видео

Регистрация Запомнить меня
Войти через:  Facebook Google Twitter Vk Yandex Mail.ru

White Denim - Come Back - таба, видео

Печатать
Просмотров: 64
-------------------------------------------------------------------------------
                             SONG NAME - Band Name
-------------------------------------------------------------------------------
Tabbed by:
E-mail:

Tuning:

Upper case "P"  =pull hard

Intro

e|------------------------------------------------------|
B|------------------------------------------------------|
G|------------------------------------------------------|
D|--4--2--0-----2p0----0--------------------------------|
A|-----------4------4-----4--2--0-------2p0-------------|
E|----------------------------------3----------3BP0--0--|

intro/verse
                               x3
e|-----------------------------|-------------------------------------------|
B|-----------------------------|-------------------------------------------|
G|-----------------------------|--------2p0------2s4--7p4--2p0-------------|
D|--------2p0--------------2V--|---2h5-------2p0----------------2p0--------|
A|------------4p2--------------|-------------------------------------------|
E|---3h4-----------0--3h4------|-------------------------------------------|


 Chorus
e|-----------------------------|--------------------------------------------|
B|-----------------------------|--------------------------------------------|
G|-----------------------------|--------------------------------------------|
D|---------2p0--------------2--|---------2p0------------2p0-----------------|
A|--------------4p2------------|-------------4p2------------4p2-0-----------|
E|--0--3h4----------0--3h4-----|--0--3h4---------0--3h4------------3B-0-----|

e|--------------------------------------------------------------------------|
B|----------------------------------------------3------------------3--------|
G|------------------------2--------------0--2h4----2h4p2p0--0------0--------|
D|---------2p0------------2-------2--4h5-----------------------0---0--------|
A|-------------4p2--------0---3h4-------------------------------------------|
E|--0-3h4----------0-3h4----------------------------------------------------|




************************************

| /   slide up
| \   slide down
| h   hammer-on
| p   pull-off
| ~   vibrato
| +   harmonic
| x   Mute note
| b   Bend
| pb  Pre-bend
| br  Bend release
| pbr Pre-bend release
| brb Bend release bend

************************************
Добавлено: 11.08.2015
Другие материалы по этой песне:
  • Аккорды и текст

Страница создана 11.08.2015
http://primanota.ru/white-denim/come-back-chords.htm
Привет, Гость.
Предлагаем пройти революционный курс по гитаре.
Подарок от PrimaNota.Ru, забирай!