PrimaNota.ru - самый крупный в мире бесплатный архив песенных текстов, аккордов, табулатур и нот


White Cross - My Love - аккорды и текст, видео

Регистрация Запомнить меня
Войти через:  Facebook Google Twitter Vk Yandex Mail.ru

White Cross - My Love - аккорды и текст, видео

Печатать
Просмотров: 126
Уроки эстрадного вокала в Санкт-Петербурге
My Love
White Cross
song: My Love (intro)
artist:  Whitecross
transcription by: Sven

Someone requested the intro to My Love, so I gave it a shot.
This is my first post ever, and I think it's fairly accurate.

The intro is built around a C#m bar chord (do not bar though).

tuning: standard

C#m:  E - 0
      B - 5
      G - 6
      D - 6
      A - 4
      E - 0

|------------0-------------0------------------0----------------------|
|--------5-4-----------5-4---4------------5-4-----------5---------5--|
|------6-------------6---------6--------6-------------6---------6----|
|----6-------------6------------------6-------------6---------6------|
|--4-------------4------------------0--------------------------------|
|-------------------------------------------------6---------5--------|
                                                (thumb)  

|------------0-------------0------------------0-------------------0--|
|--------5-4-----------5-4---4------------5-4-----------5------------|
|------6-------------6---------6--------6-------------6---------6----|
|----6-------------6------------------6-------------6---------6------|
|--4-------------4------------------0--------------------------------|
|-------------------------------------------------6---------7--------|


I did this from memory, so their might be some mistakes.

- corrections, requests, comments, and thanks: QV_geiling@apollo.commnet.edu













     
Добавлено: 28.09.2013
Другие материалы по этой песне:
  • Аккорды и текст

Страница создана 28.09.2013
http://primanota.ru/white-cross/my-love-chords.htm
Привет, Гость.
Предлагаем пройти революционный курс по гитаре.
Подарок от PrimaNota.Ru, забирай!