PrimaNota.ru - самый крупный в мире бесплатный архив песенных текстов, аккордов, табулатур и нот


white comic - This Aint The End Of Me - аккорды и текст, видео

Регистрация Запомнить меня
Войти через:  Facebook Google Twitter Vk Yandex Mail.ru

white comic - This Aint The End Of Me - аккорды и текст, видео

Печатать
Просмотров: 152
Уроки эстрадного вокала в Санкт-Петербурге
This Aint The End Of Me
white comic
-----------------------------------------------------------------
            This Ain't The End Of Me - White Comic
----------------------------------------------------------------- 

Tabbed by: Gressi

Tuning: Drop D - D A D G B e

Note(s) : This is not the original version, so it is definitely not the "perfect" way to play it.
I just figured out a tab to play along fluently and it also sounds quite good.

Intro/Main Riff
e|------------------------------------------------------|
B|------------------------------------------------------|
G|--------------------------------------2---------------|
D|-4--7--5p4p0--4--7--5p4----0--7----4--2--4--2p0-------|
A|-4------------4---------4--0----------0----------4----|
D|-4------------4------------0--------------------------|

e|----------------------------------------------|
B|----------------------------------------------|
G|--------------------------2-2-2-2-4-4-4-------|
D|-4--7--5p4p0--4--7--5p4---2-2-2-2-4-4-4-------|
A|-4------------4---------4-0-0-0-0-2-2-2-------|
D|-4------------4-------------------------------|


Chorus:
e|---------------------------------------|
B|---------------------------------------|
G|----------------2----------------------|
D|--4------0------2------2------3--4(~)--|
A|--4------0------0------2------3--4(~)--|
D|--4------0-------------2------3--4(~)--|


Main Riff Var.1
e|------------------------------------------------------|
B|------------------------------------------------------|
G|--------------------------------------2---------------|
D|-4--7--5p4p0--4--7--5p4----0--7----4--2--4--2p0-------|
A|-4------------4---------4--0----------0----------4----|
D|-4------------4------------0--------------------------|

e|------------------------------------------|
B|------------------------------------------|
G|--------------------------11-13--14--16---|
D|-4--7--5p4p0--4--7--5p4---x--x---x---x----|
A|-4------------4-----------9--11--12--14---|
D|-4------------4---------------------------|


Verse:
e|----------------------------------|
B|----------------------------------|
G|--------------------------2-2-xxx-|
D|--4-4-xxx-4-4-xxx-0-0-xxx-2-2-xxx-| x3
A|--4-4-xxx-4-4-xxx-0-0-xxx-0-0-xxx-|
D|--4-4-xxx-4-4-xxx-0-0-xxx---------|

e|----------------------------------|
B|----------------------------------|
G|--------------------------2-2-2-2-|
D|--4-4-xxx-4-4-xxx-0-0-0-0-2-2-2-2-| 
A|--4-4-xxx-4-4-xxx-0-0-0-0-0-0-0-0-|
D|--4-4-xxx-4-4-xxx-0-0-0-0---------|


-----CHORUS-----

-----MAIN RIFF VAR.1-----

-----VERSE-----

-----CHORUS-----


Breakdown:
e|--------------------------------|
B|--------------------------------|
G|-------------------2------------|
D|-4--------0--------2--------2---|x3
A|-4--------0--------0--------2---|
D|-4--------0-----------------2---|

e|-------------------|
B|-------------------|
G|---11-13--14--16---|
D|---x--x---x---x----|
A|---9--11--12--14---|
D|-------------------|

e|--------------|
B|--------------|
G|--------------|
D|-44444444-4-4-|x7
A|-44444444-4-4-|
D|-44444444-4-4-|

e|-------------------|
B|-------------------|
G|---11-13--14--16---|
D|---x--x---x---x----|
A|---9--11--12--14---|
D|-------------------|


-----CHORUS-----


Main Riff Var.2
e|------------------------------------------------------|
B|------------------------------------------------------|
G|--------------------------------------2---------------|
D|-4--7--5p4p0--4--7--5p4----0--7----4--2--4--2p0-------|
A|-4------------4---------4--0----------0----------4----|
D|-4------------4------------0--------------------------|

e|----------------------------------------------------------------------|
B|----------------------------------------------------------------------|
G|--------------------------------------2--------------------0----------|
D|-4--7--5p4p0--4--7--5p4----0--7----4--2--4--2p0------4--0--2--0--2----|
A|-4------------4---------4--0----------0----------4---4--0--2--0--2----|
D|-4------------4------------0-------------------------4--0-----0--2----|

e|------------------|   |-------|
B|------------------|   |-------|
G|-------0----------|   |-------|
D|-4--0--2--0--2----|x3 |--3-4--|
A|-4--0--2--0--2----|   |--3-4--|
D|-4--0-----0--2----|   |--3-4--|




| ~  hold
| h  hammer-on
| p  pull-off
| x  Mute note
Добавлено: 28.05.2016
Другие материалы по этой песне:
  • Аккорды и текст

Страница создана 28.05.2016
http://primanota.ru/white-comic/this-aint-end-of-me-chords.htm
Привет, Гость.
Предлагаем пройти революционный курс по гитаре.
Подарок от PrimaNota.Ru, забирай!