PrimaNota.ru - самый крупный в мире бесплатный архив песенных текстов, аккордов, табулатур и нот


Whiskeytown - Midway Park - текст песни, таба, видео

Регистрация Запомнить меня
Войти через:  Facebook Google Twitter Vk Yandex Mail.ru

Whiskeytown - Midway Park - текст песни, таба, видео

Печатать
Просмотров: 38
-------------------------------------------------------------------------------
                          MIDWAY PARK - Whiskeytown
-------------------------------------------------------------------------------
Faithless Street (1995)


Tabbed by: Idiotekk
Tuning: standard

D/F#     (2x023x)
Gadd2    (3x023x)
Bm7      (x2x23x)
Asus4    (x02230)
A        (x02220)
C        (x32010)
G        (320033)


Main riff 

    D/F#         Gadd2           Bm7      Asus4
e|------------------------------------------------0----------------|
B|--------3-------------3--------------3----------------3----------|
G|-----2-----2-------2-----2--------2----------2-------------------|
D|-----------------------------------------------------------------|
A|-------------------------------2--------0---------(0)------------|
E|--2------------3-------------------------------------------------|


[Main riff]     
I'll ride with you tonight
I'll ride forever
There's no way to predict this kind of weather
Ashes fall to earth
Words are severed
Feathers turn to weighted iron pillars

C              
    Midway Park
Bm                          A   
    Streetlights shine on a road that is dark
G   
    Down on the graves
A   C           G  
    Where we'll lie
A   C     G
    We'll lie
A   C     G    A Asus4 A Asus4 
    We'll lie

[Main riff]
I'll think of you tonight
I'll think forever
There's no way to predict this kind of weather
Ashes fall to earth
Words are severed
Feathers turn to broken beads and pillars

C              
    Midway Park
Bm                          A   
    Streetlights shine on a road that is dark
G   
    Down on the graves
A   C     G  
    We'll lie
A   C           G
    Where we'll lie
A   C     G    A Asus4 A Asus4 
    We'll lie

[Main riff]
Don't tell the truth
We'll lie
Just lie
Don't tell the truth
Just lie
Lie



************************************

| /   slide up
| \   slide down
| h   hammer-on
| p   pull-off
| ~   vibrato
| +   harmonic
| x   Mute note
| b   Bend
| pb  Pre-bend
| br  Bend release
| pbr Pre-bend release
| brb Bend release bend

************************************
Добавлено: 15.09.2015
Другие материалы по этой песне:
  • Аккорды и текст

Страница создана 24.03.2012
http://primanota.ru/whiskeytown/midway-park-chords.htm
Привет, Гость.
Предлагаем пройти революционный курс по гитаре.
Подарок от PrimaNota.Ru, забирай!