PrimaNota.ru - самый крупный в мире бесплатный архив песенных текстов, аккордов, табулатур и нот


Whiskey Myers - Gone Away - таба, видео

Регистрация Запомнить меня
Войти через:  Facebook Google Twitter Vk Yandex Mail.ru

Whiskey Myers - Gone Away - таба, видео

Печатать
Просмотров: 90
Im 100% sure on the chords, but the picking in the beginning is not 100%.
Its how I play it, but its pretty close to what the real thing is and sounds good.
Use the picking in the intro, first verse, and first chorus, the second verse, then 
chords the rest of the way.
Standard Tuning, Capo on 2

UPDATE: So I saw him play this live and he played it with no Capo. So
that would make it Bm, G, D, A instead of Am, F, C, G. You can just traspose
it with the button on the side if you want. However, I still play it with a Capo on 
the 2 and it sounds fine, but if you want to match it live, dont use a capo. Also, the intro
 matches better with no capo, but again, it still sounds good with one on two.

Intro 2x

e|------------------------|--------|----------------------------------|
B|----1-------1-----3p1---|--3-1-0-|---3-1-0---3-1-0---3-1-0----------|
G|---2-2---0h2-2-------0-0|-------0|---------0-------0-------0--------|
D|--2---2-3------3-2----2-|--------|----------------------------------|
A|-0-----3--------3-------|-2------|--2-------------------------------|
E|------------------------|3-------|-3--------------------------------|
                           ending 1  ending 2(use at the end of each verse)
Intro (no capo) 2x
e|----------3----0h2---|------|---------|--------------------|
B|----3----3-3------3--|---2h3|----2/3/2|---2--2h3--3p2------|
G|---4-4------0-2-----2|--2---|---2-----|--2-2----2----2-----|
D|--4---4-0----0-----0-|-2----|--2------|-2---2----2----2----|
A|-2-------------------|0-----|-0-------|--------------------|
E|-------3-------------|------|---------|--------------------|
                      ending 1 ending 2   ending 3 (use at end of each verse)
                              (play first 
                              three notes faster)

Continue playing intro 4x or play chords

Am        F      C     G
Summer is comin, to an end
Am            F                   C         G
Just like the good times youll be gone once again
Am        F                     C         G
Out of my life and out of this, one-horse town
Am          F               C              G (play ending 2)
Just like a bird you fly so high above the ground

Chorus- intro 4x or chords
          Am F  C                   G
But youre gone away and you left me far behind
      Am F  C                 G
Youre gone away, cant get you outta my mind
      Am F   C        G            Am F
Youre gone, away, and I am here to stay
C   G
Away

Intro 2x or play Solo 1 2x
e|------------------------------------|
B|------------------------------------|
G|------------------------------------|
D|------------------------------------|
A|-0--0h2-3-----3h5/7/5-3-2-3-2-0---0-|
E|-----------3--------------------3---|



Intro 4x or chords

Am      F                   C          G
Fall is so cold without you here by my side
Am              F                       C                G
Im still in the same damn town and hell yeah Im probably high
Am                F              C            G
The clouds are so lonely and the sky it is so blue
Am      F               C                 G (play ending 2)
And until you return my love is still for you

Chorus- play chords

          Am F  C                   G
But youre gone away and you left me far behind
      Am F  C                 G
Youre gone away, cant get you outta my mind
      Am F   C        G            Am F
Youre gone, away, and I am here to stay
C   G
Away

Solo 2 4x
e|----------------------------------|
B|----------------------------------|
G|----------------------------------|
D|----------------------------------|
A|-0--0h2-3--3h5-7--8-5-5h7h8-7p5-3-|
E|----------------------------------|

Chorus- play chords
          Am F  C                   G
But youre gone away and you left me far behind
      Am F  C                 G
Youre gone away, cant get you outta my mind
      Am F   C        G            Am F
Youre gone, away, and I am here to stay
C   G
Away

Solo 2 4x

Solo 3- I have not tabbed that out yet, if anyone knows it let me know and ill put it up!

any corrections email me at hulanic@gmail.com
Добавлено: 21.11.2013
Другие материалы по этой песне:
  • Аккорды и текст

Страница создана 18.09.2013
http://primanota.ru/whiskey-myers/gone-away-chords.htm
Привет, Гость.
Предлагаем пройти революционный курс по гитаре.
Подарок от PrimaNota.Ru, забирай!