PrimaNota.ru - самый крупный в мире бесплатный архив песенных текстов, аккордов, табулатур и нот


Whirr - Mumble - бас-таба, видео

Регистрация Запомнить меня
Войти через:  Facebook Google Twitter Vk Yandex Mail.ru

Whirr - Mumble - бас-таба, видео

Печатать
Просмотров: 83
-------------------------------------------------------------------------------
                             MUMBLE - Whirr
-------------------------------------------------------------------------------
Tabbed by: cesare_moon
E-mail: 

Artist: Whirr
Album: Sway
Year: 2014

Tuning:

Intro -  00.00 - 00.25

G|---------------------------------------------------------------------------|
D|---------------------------------------------------------------------------|
A|-4--4--4--4--4--4--4--4--4--4--4--4--4-------------------------------------|
E|---------------------------------------0--0--0--0--------------------------| x4

Verse - 00.25 - 00.50

G|---------------------------------------------------------------------------|
D|---------------------------------------------------------------------------|
A|-4-4-4-4-4-4-4-4-7-7-7-7-7-7-7-7-------------------------------------------|
E|---------------------------------7-7-7-7-7-7-7-7-4-4-4-4-4-4-4-4-----------| x2

Chorus/Instrumental Part - 00.50 - 01.15

G|---------------------------------------------------------------------------|
D|---------------------------------------------------------------------------|
A|-6-6-6-6-6-6-6-6-6-6-6-------4-4-----6-6-6-6-6-6-6-6-------------4-4-------|
E|-----------------------0--0--------------------------7-7-7-0--0------------| x2

Verse - 01.15 - 01.39

G|---------------------------------------------------------------------------|
D|---------------------------------------------------------------------------|
A|-4-4-4-4-4-4-4-4-7-7-7-7-7-7-7-7-------------------------------------------|
E|---------------------------------7-7-7-7-7-7-7-7-4-4-4-4-4-4-4-4-----------| x2

Bridge - 01.39 - 02.04

G|---------------------------------------------------------------------------|
D|---------------------------------------------------------------------------|
A|-4---4---4---4---4---4---4---4---------------------------------------------|
E|--------------------------------0---4---4---4---4---4---4---4---4---7------| x4

Chorus/Instrumental Part - 02.04 - 02.30

G|---------------------------------------------------------------------------|
D|---------------------------------------------------------------------------|
A|-6-6-6-6-6-6-6-6-6-6-6-------4-4-----6-6-6-6-6-6-6-6-------------4-4-------|
E|-----------------------0--0--------------------------7-7-7-0--0------------| x2

Thank you! :)

| /  slide up
| \  slide down
| h  hammer-on
| p  pull-off
| ~  vibrato
| +  harmonic
| x  Mute note
===============================================================================
Добавлено: 27.03.2016
Другие материалы по этой песне:
  • Аккорды и текст

Страница создана 27.03.2016
http://primanota.ru/whirr/mumble-chords.htm
Привет, Гость.
Предлагаем пройти революционный курс по гитаре.
Подарок от PrimaNota.Ru, забирай!