PrimaNota.ru - самый крупный в мире бесплатный архив песенных текстов, аккордов, табулатур и нот


Whiplash - Thrash Til Death - текст песни, таба, видео

Регистрация Запомнить меня
Войти через:  Facebook Google Twitter Vk Yandex Mail.ru

Whiplash - Thrash Til Death - текст песни, таба, видео

Печатать
Просмотров: 87
Уроки эстрадного вокала в Санкт-Петербурге
Whiplash "Thrash Til Death" from THRASHBACK (1998)

Tabbed by Nick S.
E-mail: Pantera9560@aol.com (Use the song & band name as the subj.)

R.I.P. Tony Bono

Riff 1 4x
G-------------3--2--3---------------3-2-3---------------3--2--3--------------3
D-------------3--2--3---------------3-2-3---------------3--2--3--------------1
A-----------------------------------------------------------------------------
E-3333133313------------3333133313----------3333133313------------333313313---

Riff 2 once
D-3-2-3-5-3-2---2-3--
A-1-0-1-3-1-0---0-1--

Riff 3A once
D----7-----7-----7-----7-----7-----7---1--0-----0---------------------------
A-55-5--55-5--55-5--55-5--55-5--55-5---------3-----3--1--0--1---------------
E---------------------------------------------------------------333333333333

D-----------------------------1--0-----0-------------------------------------
A----55-5--55-5--55-5--55-5---------3-----3--1--0--1--0--1--0-----3--1--0----
E--------------------------------------------------------------3-----------1-

Riff 1 twice
Riff 2 once
Riff 3A once

Riff 4A 4x
A-5----------8---7/8---
E-3----------6---5/6---

Riff 4B twice
G-2----------5---4/5---2----------------
D-0----------3---2/3---0---------5-5-5--
A--------------------------------3-3-3--

Riff 3B 3x
D----7-----7-----7-----7---1--0--1--3--1--0-----0--3--1--0--1--------0--1---
A-55-5--55-5--55-5--55-5---------------------3-----------------3--1---------

Riff 3B ending
D-0--1--0-----0-----------------------------------
A----------3-----3--0--1--0--1--0-----3--1--0-----
E----------------------------------3-----------1--

Riff 1 twice
Riff 2 once

Ending
D----7-----7-----7-----7---1--0-----0-----------------------------------------
A-55-5--55-5--55-5--55-5---------3-----3--1--0--1--0--1--0-----3--1--0------5-
E-----------------------------------------------------------3-----------1---3-
     
Добавлено: 22.07.2013
Вам также может быть интересно:
Другие материалы по этой песне:
  • Аккорды и текст

Страница создана 22.07.2013
http://primanota.ru/whiplash/thrash-til-death-chords.htm
Привет, Гость.
Предлагаем пройти революционный курс по гитаре.
Подарок от PrimaNota.Ru, забирай!