PrimaNota.ru - самый крупный в мире бесплатный архив песенных текстов, аккордов, табулатур и нот


Whiplash - Stirring The Cauldron - текст песни, таба, видео

Регистрация Запомнить меня
Войти через:  Facebook Google Twitter Vk Yandex Mail.ru

Whiplash - Stirring The Cauldron - текст песни, таба, видео

Печатать
Просмотров: 83
Whiplash "Stirring the Cauldron" from POWER AND PAIN (1985)

Tabbed by on 11/16/02 Nick S. If you have any questions, send me an E-mail 
Pantera9560@aol.com w/ the subj. "Stirring the Cauldron tab" or "Whiplash 
tab" but I must warn you I probably won't be able to answer your question(s)
because I bought this CD used on EBay and I have to send it back 'cause it's 
in bad condition. I decided I'd learn a few songs from the album by ear that 
don't skip 'cause I haven't seen any other Whiplash tabs anywhere. I hope 
this tab is helpful to you and I think it should be. Listen to the song to 
get the tempo and figure out what stuff is palm-muted.

Intro
D-----------4-3------------------------
A-----------2-1------------4--4--6-----
E-000000000-----000000000--2--2--4-----
Note: On the shredding stuff, it's just an estimate of how many times each
note is played.

Riff 1
D------------------4-3-4-3------------------------4-3----
A------------------2-1-2-1-------------------4-3--2-1----
E-0000000000000000---------0000000000000000--2-1---------

Riff 2
G------------------6-5-6-5-------------------6-5-4-3----
D------------------4-3-4-3-------------------4-3-2-1----
A-1111111111111111----------1111111111111111------------

Riff 3
D-8------6------4------6------6------4--------
A-6------4------2------4------4------2---4----
E----------------------------------------2----

Riff 3 ending 1
D------------------4--3-----
A------------------2--1-----
E-0000000000000000----------

Riff 3 ending 2
D------------------4-3-------------------------------
A------------------2-1--------------------4--4--6----
E-0000000000000000------0000000000000000--2--2--4----

Riff 4
D--------------3--------------4-3--------------3------------------------
A--------------1--------------2-1--------------1---------------4-4-6----
E-000000000000---000000000000-----000000000000---000000000000--2-2-4----

Riff 5
D-6---6--6---4-----4--4-----7---7-7-6-----
A-4---4--4---2-----2--2-----5---5-5-4-----

Riff 5 ending
D-2--4--5--9/
A-0--2--3--7/

Riff 6
D-4-4-4-4-4-4-----3-3-3-3-3-3-3-3-3-3-3-3----
A-2-2-2-2-2-2-----1-1-1-1-1-1-1-1-1-1-1-1----

Riff 6 extended
D-4-----3-3-3-3-3-3-3-3-3-3-3-3-4-4-4-4-4-4-6-6-6-6-6-6----
A-2-----1-1-1-1-1-1-1-1-1-1-1-1-2-2-2-2-2-2-4-4-4-4-4-4----
then play E5 chord w/ whammy bar

Ending
D-3-----4--3--4--3-----
A-1--3--2--1--2--1-----
E----1----------------- 

Song order:
Intro
Riff 1 once
Riff 2 once
Riff 1 twice
Riff 2 twice
Riff 1 twice
Riff 3 once w/ riff 3 ending 1 twice
Riff 3 once
Riff 4 twice
Riff 5 twice w/ riff 5 ending
Intro
Riff 1 once
Riff 2 once
Riff 1 twice
Riff 2 twice
Riff 1 twice
Riff 3 once w/ ending 1 twice
Riff 3 once w/ ending 2 twice
Riff 5 twice
Riff 6 once
Riff 6 extended once
Ending then play E5 chord and let it ring.

Tony Portaro: Guitar, vocals
Tony Scaglione: Drums
Tony Bono: Bass
     
Добавлено: 31.07.2013
Другие материалы по этой песне:
  • Аккорды и текст

Страница создана 21.06.2012
http://primanota.ru/whiplash/stirring-the-cauldron-chords.htm
Привет, Гость.
Предлагаем пройти революционный курс по гитаре.
Подарок от PrimaNota.Ru, забирай!