PrimaNota.ru - самый крупный в мире бесплатный архив песенных текстов, аккордов, табулатур и нот


Whiplash - Nails In Me Deep - таба, видео

Регистрация Запомнить меня
Войти через:  Facebook Google Twitter Vk Yandex Mail.ru

Whiplash - Nails In Me Deep - таба, видео

Печатать
Просмотров: 62
Whiplash "Nails In Me Deep" from THRASHBACK (1998)

Tabbed by Nick S.
E-mail: Pantera9560@aol.com (Use the song & band name as the subj.)

R.I.P. Tony Bono

Riff 1 4x
D----------------------------------5---7---
A---------2-------2------------5---3---5---
E-0-0-0---0-------0----0-0-0---3-----------

Riff 2A twice
D-9-9-9-9-9-9-9-9-9-9-9-9--5--4--2--0---5-5-5-5-5-5-5-5-5-5-5-5--2--0------
A-7-7-7-7-7-7-7-7-7-7-7-7---------------3-3-3-3-3-3-3-3-3-3-3-3--------3--2

D-2-2-2-2-2-2-2-2-2-2-2-2---------------5-5-5-5-5-5---7-7-7-7-7-7---
A-0-0-0-0-0-0-0-0-0-0-0-0--3--2--0------3-3-3-3-3-3---5-5-5-5-5-5---
E-----------------------------------3-------------------------------

Riff 3A twice
Dm020202020202-------5---7----020202020202---5-------7---
A----------------5---3---5-------------------3---5---5---
E----------------3-------------------------------3-------

Riff 3B 4x then end w/ E5 chord
D-5------5-5---------7-7----020202020202---5-------7---
A-3-333--3-3---5555--5-5-------------------3---5---5---
E----------------------------------------------3-------

Riff 2A twice
Riff 3A twice
Riff 3B 4x then end w/ E5 chord

Riff 2B twice
D-9-9-9-9-9-9-9-9-9-9-9-9---5-5-5-5-5-5-5-5-5-5-5-5---4-4-4-4-4-4-4-4-4-4-4-
A-7-7-7-7-7-7-7-7-7-7-7-7---3-3-3-3-3-3-3-3-3-3-3-3---2-2-2-2-2-2-2-2-2-2-2-

D-5-5-5-5-5-5---7-7-7-7-7-7---
A-3-3-3-3-3-3---5-5-5-5-5-5---

Riff 2A twice
Riff 3A twice
Riff 3B 4x then end w/ E5 chord let it ring, then slide E5 chord

Keep checking back for "King With the Axe"
     
Добавлено: 03.12.2013
Другие материалы по этой песне:
  • Аккорды и текст

Страница создана 03.12.2013
http://primanota.ru/whiplash/nails-in-me-deep-chords.htm
Привет, Гость.
Предлагаем пройти революционный курс по гитаре.
Подарок от PrimaNota.Ru, забирай!