PrimaNota.ru - самый крупный в мире бесплатный архив песенных текстов, аккордов, табулатур и нот


While She Sleeps - The Plague Of A New Age - текст песни, таба, видео

Регистрация Запомнить меня
Войти через:  Facebook Google Twitter Vk Yandex Mail.ru

While She Sleeps - The Plague Of A New Age - текст песни, таба, видео

Печатать
Просмотров: 134
-------------------------------------------------------------------------------
                             SONG NAME - Band Name
-------------------------------------------------------------------------------
Tabbed by:
E-mail:

Tuning: Drop C


Intro:

D|---------------------------------------------------------------------------------|
A|---------------------------------------------------------------------------------|
F|---------------------------------------------------------------------------------|
C|---------------------------------------------------------------------------------|
G|--------------9---------------------9--------------------------------------------|
C|--13-13-10-12---13-10-12---13-10-12---13-10-12--00-00--00-10-12-0-10-12-0-10-12--|


D|---------------------------------------------------------------------|
A|---------------------------------------------------------------------|
F|---------------------------------------------------------------------|
C|------------------------------------------------0-0-0--6--1----------|   x2
G|--------------9---------------------9-----------0-0-0--6--1----------|
C|--13-13-10-12---13-10-12---13-10-12---13-10-12--0-0-0--6--1----------|


D|--------------------------------------------------------------------------------------|
A|--------------------------------------------------------------------------------------|
F|--------------------------------------------------------------------------------------|
C|--00-000-000-000-000-000---------------------------00-000-000-000-0-66-666-6-11-1111--|
G|--00-000-000-000-000-000---------------------------00-000-000-000-0-66-666-6-11-1111--|
C|--00-000-000-000-000-000-0-10-12-0-10-12-0-10-12---00-000-000-000-0-66-666-6-11-1111--|

D|-------------------------------------------------------------------------------------|
A|-------------------------------------------------------------------------------------|
F|-------------------------------------------------------------------------------------|
C|--00-000-000-000-000-000---------------------------00-000-000-000---1-1-1-1-4-4-3-3--|
G|--00-000-000-000-000-000---------------------------00-000-000-000---1-1-1-1-4-4-3-3--|
C|--00-000-000-000-000-000-0-10-12-0-10-12-0-10-12---00-000-000-000---1-1-1-1-4-4-3-3--|



D|-----------------------------------------------------------------|
A|-----------------------------------------------------------------|
F|-----------------------------------------------------------------|
C|--0-0-0-0-0-0-0-0-0-0-0-0---0---0-0-0-0-0-0-0-0------------------|
G|--0-0-0-0-0-0-0-0-0-0-0-0-1---1-0-0-0-0-0-0-0-0-0-0-0-0-0-0-0-0--|
C|--0-0-0-0-0-0-0-0-0-0-0-0-------0-0-0-0-0-0-0-0-1-1-1-1-1-1-1-1--|

D|---------------------------------------------------------------------|
A|---------------------------------------------------------------------|
F|---------------------------------------------------------------------|
C|--0-0-0-0-0-0-0-0-0-0-0-0---0------------------------------------0~--|
G|--0-0-0-0-0-0-0-0-0-0-0-0-1---1-0-0-0-0-0-0-0-0-0-0-0-0-0-0-0-0--0~--|
C|--0-0-0-0-0-0-0-0-0-0-0-0-------5-5-5-5-5-5-5-5-1-1-1-1-1-1-1-1--0~--|



e|----------------------------------------------------------|
B|----------------------------------------------------------|
G|----------------------------------------------------------|
D|----------------------------------------------------------|
A|------------------------------------------66-666-6-11-11--|
E|--10-12-0-10-12-0-10-12--00-000-000-000-0-66-666-6-11-11--|



e|---------------------------------------------------------------------------------------|
B|---------------------------------------------------------------------------------------|
G|---------------------------------------------------------------------------------------|
D|--000000000000000000000000-----------------------0000000000000000-11111111-44444-3333--|
A|--000000000000000000000000-----------------------0000000000000000-11111111-44444-3333--|
E|--000000000000000000000000-10-12-0-10-12-0-10-12-0000000000000000-11111111-44444-3333--|


e|----------------------------------------------------------------------------------------------------------|
B|----------------------------------------------------------------------------------------------------------|
G|----------------------------------------------------------------------------------------------------------|
D|-----------------------------------------------5-----7----------------------------------------------------|
A|------5---------5------------------5--------------------------5--------5---------------44-444-4-11-111-1--|
E|--000---000000----8-0-1-0-1-4--000---0000--5-7---7-8---8--000---000000----8-0-1-0-1-4--44-444-4-11-111-1--|

e|-------------------------------------------------------------------------------------------------|
B|-------------------------------------------------------------------------------------------------|
G|-------------------------------------------------------------------------------------------------|
D|-----------------------------------------------5-----7---------------------------------1~-4~-0~--|
A|------5---------5------------------5--------------------------5--------5---------------1~-4~-0~--|
E|--000---000000----8-0-1-0-1-4--000---0000--5-7---7-8---8--000---000000----8-0-1-0-1-4--1~-4~-0~--|



D|---------------------------------------------------------------------------------|
A|---------------------------------------------------------------------------------|
F|---------------------------------------------------------------------------------|
C|---------------------------------------------------------------------------------|
G|--------------9---------------------9--------------------------------------------|
C|--13-13-10-12---13-10-12---13-10-12---13-10-12--00-00--00-10-12-0-10-12-0-10-12--|


D|---------------------------------------------------------------------|
A|---------------------------------------------------------------------|
F|---------------------------------------------------------------------|
C|------------------------------------------------0-0-0--6--1----------|   x4
G|--------------9---------------------9-----------0-0-0--6--1----------|
C|--13-13-10-12---13-10-12---13-10-12---13-10-12--0-0-0--6--1----------|



D|-----------------------------------------------------------------|
A|-----------------------------------------------------------------|
F|-----------------------------------------------------------------|
C|-----------------------------------------------------------------|  x8  |--0~--|
G|-----5----5----5-------------------5----5----5-------------------|      |--0~--|
C|--00---00---00---8-7-0-1-0-1-4--00---00---00---8-7-0-11-11-9-12--|      |--0~--|


(the fast part)
D|------------------------------------------------------------------------------|
A|------------------------------------------------------------------------------|
F|------------------------------------------------------------------------------|
C|------------------------------------------------------------------------------|
G|------------------------------------------------------------------------------|
C|--000-000-000-0-0-000-0-000-12-12-12-000-000-000-0-0-12-12-12-12-10-10-10-12--|

D|-------------------------------------------------------------------------|
A|-------------------------------------------------------------------------|
F|-------------------------------------------------------------------------|
C|-------------------------------------------------------------------------|
G|-----------------------------------------------------------5---5-7-5-----|
C|--000-000-000-0-0-000-0-000-12-12-12-000-000-000-0-0--0-10---0-------10--|

D|------------------------------------------------------------------------------|
A|------------------------------------------------------------------------------|
F|------------------------------------------------------------------------------|
C|------------------------------------------------------------------------------|
G|------------------------------------------------------------------------------|
C|--000-000-000-0-0-000-0-000-12-12-12-000-000-000-0-0-12-12-12-12-10-10-10-12--|

D|-------------------------------------------------------------------------|
A|-------------------------------------------------------------------------|
F|-------------------------------------------------------------------------|
C|-------------------------------------------------------------------------|
G|-----------------------------------------------------------5---5-7-5-----|
C|--000-000-000-0-0-000-0-000-15-15-15-000-000-000-0-0--0-10---0-------10--|

D|------------------------------------------------------------------------------|
A|------------------------------------------------------------------------------|
F|------------------------------------------------------------------------------|
C|------------------------------------------------------------------------------|
G|------------------------------------------------------------------------------|
C|--000-000-000-0-0-000-0-000-12-12-12-000-000-000-0-0-12-12-12-12-10-10-10-12--|

D|-----------------------------------------------------------------|
A|-----------------------------------------------------------------|
F|-----------------------------------------------------------------|
C|-------------------------------------12~~~0~---------------------|
G|-------------------------------------12~~~0~-------5---5-7-5-----|
C|--000-000-000-0-0-000-0-000-15-15-15-12~~~0~--0-10---0-------10--|



D|-----------------------------------------------------------------|
A|-----------------------------------------------------------------|
F|-----------------------------------------------------------------|
C|--0-0-0-0-0-0-0-0-0-0-0-0---0---0-0-0-0-0-0-0-0------------------|
G|--0-0-0-0-0-0-0-0-0-0-0-0-1---1-0-0-0-0-0-0-0-0-0-0-0-0-0-0-0-0--|
C|--0-0-0-0-0-0-0-0-0-0-0-0-------0-0-0-0-0-0-0-0-1-1-1-1-1-1-1-1--|

D|-----------------------------------------------------------------|
A|-----------------------------------------------------------------|
F|-----------------------------------------------------------------|
C|--0-0-0-0-0-0-0-0-0-0-0-0---0------------------------------------|
G|--0-0-0-0-0-0-0-0-0-0-0-0-1---1-0-0-0-0-0-0-0-0-0-0-0-0-0-0-0-0--|
C|--0-0-0-0-0-0-0-0-0-0-0-0-------5-5-5-5-5-5-5-5-1-1-1-1-1-1-1-1--|



D|--------| |---------------------------------------------------------------|
A|--------| |---------------------------------------------------------------|
F|--------| |---------------------------------------------------------------|
C|--0~~~--| |---------------------------------------------------------------|
G|--0~~~--| |------------------------------------------------------7-7-8-8--|
C|--0~~~--| |--12-12-12-12--7-7-7-7--8-8-8-8--5-5-5-5--10-10-10-10----------|


D|-------------------------------------------------------|
A|-------------------------------------------------------|
F|-------------------------------------------------------|
C|-------------------------------------------------------|
G|-------------------------------------------------------|
C|--12-12-12-12--7-7-7-7--8-8-8-8--5-5-5-5--10-10-10-10--|


D|----------------------------------------------------------------|
A|----------------------------------------------------------------|
F|----------------------------------------------------------------|
C|----------------------------------------------------------------|
G|--12-12-12-12--7-7-7-7--8-8-8-8--5-5-5-5--10-10-10-10--7-7-8-8--|
C|--12-12-12-12--7-7-7-7--8-8-8-8--5-5-5-5--10-10-10-10-----------|

D|---------------------------------------------------------------|
A|---------------------------------------------------------------|
F|---------------------------------------------------------------|
C|---------------------------------------------------------------|
G|--12-12-12-12--7-7-7-7--8-8-8---5-5-5-5--10-10-10-10--7-7-8-8--|
C|--12-12-12-12--7-7-7-7--8-8-8---5-5-5-5--10-10-10-10-----------|

D|----------------------------------------------------------------|
A|----------------------------------------------------------------|
F|----------------------------------------------------------------|
C|----------------------------------------------------------------|
G|--12-12-12-12--7-7-7-7--8-8-8-8--5-5-5-5--10-10-10-10--7-7-8-8--|
C|--12-12-12-12--7-7-7-7--8-8-8-8--5-5-5-5--10-10-10-10-----------|

D|--------------------------------------------------------------|
A|--------------------------------------------------------------|
F|--------------------------------------------------------------|
C|----------------------------------------------10-10-10--0~~~--|
G|--12-12-12-12--7-7-7-7--8-8-8---5--5-5-5-5-5--10-10-10--0~~~--|
C|--12-12-12-12--7-7-7-7--8-8-8---5--5-5-5-5-5--10-10-10--0~~~--|


End Solo

D|--17p13------------------------------------------------------------------------|
A|--------15---------------------------------------------------------------------|
F|-----------14----------------------------------------------10\9----------------|
C|--------------15-15--15/17--15-14-15-14--------------10h12--------10/12-10/12--|
G|----------------------------------------15/17--10h12---------------------------|
C|-------------------------------------------------------------------------------|

D|--13p12-------------------------13-13-13-12-12-12------------------------------------------15-------12/13--|
A|--------13----13-13-13-10-10-10-------------------13-13-13/15---------------------13----13-------13--------|
F|-----------14------------------------------------------------------------10/12\10----14-------14-----------|
C|--------------------------------------------------------------------10h12----------------------------------|
G|--------------------------------------------------------------10h12----------------------------------------|
C|-----------------------------------------------------------------------------------------------------------|

D|--17p13------------------------------------------------------------------------|
A|--------15---------------------------------------------------------------------|
F|-----------14----------------------------------------------10\9----------------|
C|--------------15-15--15/17--15-14-15-14--------------10h12--------10/12-10/12--|
G|----------------------------------------15/17--10h12---------------------------|
C|-------------------------------------------------------------------------------|

D|--13p12-------------------------13-13-13-12-12-12-----------------------------17--20--15--|
A|--------15----13-13-13-10-10-10-------------------13-13-13/15--15-15-17-17-17-------------|
F|-----------14-----------------------------------------------------------------------------|
C|------------------------------------------------------------------------------------------|
G|------------------------------------------------------------------------------------------|
C|------------------------------------------------------------------------------------------|

D|--------|
A|--------|
F|--------|
C|--0~~~--|
G|--0~~~--|
C|--0~~~--|


************************************

| /   slide up
| \   slide down
| h   hammer-on
| p   pull-off
| ~   vibrato
| +   harmonic
| x   Mute note
| b   Bend
| pb  Pre-bend
| br  Bend release
| pbr Pre-bend release
| brb Bend release bend

************************************
Добавлено: 28.07.2015
Другие материалы по этой песне:

Страница создана 05.11.2013
http://primanota.ru/while-she-sleeps/the-plague-of-a-new-age-chords.htm
Привет, Гость.
Предлагаем пройти революционный курс по гитаре.
Подарок от PrimaNota.Ru, забирай!