PrimaNota.ru - самый крупный в мире бесплатный архив песенных текстов, аккордов, табулатур и нот


While She Sleeps - Four Walls - таба, видео

Регистрация Запомнить меня
Войти через:  Facebook Google Twitter Vk Yandex Mail.ru

While She Sleeps - Four Walls - таба, видео

Печатать
Просмотров: 101
-------------------------------------------------------------------------------
                             FOUR WALLS - while she sleeps
-------------------------------------------------------------------------------
Tabbed by: Adam Hague
E-mail: ahague01@gmail.com

Tuning: CGCFAD

This part is played with a clean tone

D|---------------------------------------------------------------------------|
A|---------------------------------------------------------------------------|
F|---------4-4-4-4-6-6-------------4-4-4-4-6-6-------------------------------|
C|-4-4-4-4-4-4-4-4-4-4-----4-4-4-4-4-4-4-4-4-4-------------------------------|
G|-4-4-4-4-0-0-0-0-0-0-----4-4-4-4-0-0-0-0-0-0-------------------------------|
C|-4-4-4-4-0-0-0-0---------4-4-4-4-0-0-0-0-----------------------------------|

D|---------------------------------------------------------------------------|
A|---------------------------------------------------------------------------|
F|---------4-4-4-4-6-6-6-6-6-6----------4-4-4-4-6----------------------------|
C|-4-4-4-4-4-4-4-4-4-4-4-4-4-4--4-4-4-4-4-4-4-4-4----------------------------|
G|-4-4-4-4-0-0-0-0-0-0-7-7-7-7--4-4-4-4-0-0-0-0-0----------------------------|
C|-4-4-4-4-0-0-0-0--------------4-4-4-4-0-0-0-0------------------------------|

Distorted intro kicks in and plays through the verse

D|---------------------------------------------------------------------------|
A|---------------------------------------------------------------------------|
F|---------------------------------------------------------------------------|
C|-5-4-2-4-4-5-4-2-4-4-5-4-2-4-4-7/8-7/8-7/8---------------------------------|      
G|-5-4-2-4-4-5-4-2-4-4-5-4-2-4-4-7/8-7/8-7/8---------------------------------|
C|-5-4-2-4-4-5-4-2-4-4-5-4-2-4-4-7/8-7/8-7/8---------------------------------|



************************************

| /   slide up
| \   slide down
| h   hammer-on
| p   pull-off
| ~   vibrato
| +   harmonic
| x   Mute note
| b   Bend
| pb  Pre-bend
| br  Bend release
| pbr Pre-bend release
| brb Bend release bend

************************************
Добавлено: 31.05.2016
Другие материалы по этой песне:

Страница создана 02.11.2015
http://primanota.ru/while-she-sleeps/four-walls-chords.htm
Привет, Гость.
Предлагаем пройти революционный курс по гитаре.
Подарок от PrimaNota.Ru, забирай!