PrimaNota.ru - самый крупный в мире бесплатный архив песенных текстов, аккордов, табулатур и нот


Wheatus - Love Is A Mutt From Hell - аккорды и текст, таба, бас-таба, видео

Регистрация Запомнить меня
Войти через:  Facebook Google Twitter Vk Yandex Mail.ru

Wheatus - Love Is A Mutt From Hell - аккорды и текст, таба, бас-таба, видео

Печатать
Просмотров: 157
Love Is A Mutt From Hell
Wheatus
		   a great son that is true cause npbody can live without love.
i dont know if it like this but any suggestion or comment  zoompy37@hotmail.com>

Intro/Vese
|-------------------------------------
|-------------------------------------
|----2--2--2----6--6--6----4--4--4----
|----2--2--2----6--6--6----4--4--4----
|----0--0--0----4--4--4----2--2--2----
|-------------------------------------

Repeat this untill it gets to "She takes advantage of me" where it changes to

Pre Chorus
|-----------------
|-----------------
|---7--7---7---5--
|---7--7---7---5--
|----------5---3--
|-----------------

This goes on until the chorus

|--------------------------------
|--------------------------------
|----------4--4----------2--2----
|---2--2---4--4---4--4---2--2----
|---2--2---2--2---4--4---0--0----
|---0--0----------2--2-----------


There is one other different bit later on in a verse wich I belive goes
like this

|----------------------------------------------------------------
|----------------------------------------------------------------
|---2--2--2---6--6---4--4--4---7--7---6--6--6---9--9---5--5--5---
|---2--2--2---6--6---4--4--4---7--7---6--6--6---9--9---5--5--5---
|---0--0--0---4--4---2--2--2---5--5---4--4--4---7--7---7--7--7---
|----------------------------------------------------------------

Repeat that then at the end play the D power chord once and go up these
power chords

|----------------------
|----------------------
|---9---11---13--(14)--
|---9---11---13--(14)--
|---7---9----11--(12)--
|----------------------

ill love u 4ever bb 37     
Добавлено: 09.09.2013
Другие материалы по этой песне:
  • Аккорды и текст

Страница создана 12.03.2012
http://primanota.ru/wheatus/love-is-a-mutt-from-hell-chords.htm
Привет, Гость.
Предлагаем пройти революционный курс по гитаре.
Подарок от PrimaNota.Ru, забирай!