PrimaNota.ru - самый крупный в мире бесплатный архив песенных текстов, аккордов, табулатур и нот


What Happens Next - Youre Not Dead Until Youre Forgotten - таба, видео

Регистрация Запомнить меня
Войти через:  Facebook Google Twitter Vk Yandex Mail.ru

What Happens Next - Youre Not Dead Until Youre Forgotten - таба, видео

Печатать
Просмотров: 61
What Happens Next? - You're Not Dead Until You're Forgotten
The Second Year (2001)
Tabbed by ruker (Varuker@gmail.com)
Standard Tuning EADGBE

--------------
Key:
--------------
.  palm mute
/  slide up
\  slide down
--------------

(0:00)
 Right Only
||----------------------------------||
||----------------------------------||
||----------------------------------||
||-3-3---6-8-8---6-9-9-\------------||
||-1-1---4-6-6---4-7-7-\------------||
||----------------------------------||


(0:02)
 Both
||------------------------------------||
||*----------------------------------*||
||------------------------------------||
||--3-3---6-8-8---6-9-9---9-----------||
||*-1-1---4-6-6---4-7-7---7-2---2----*||
||--------------------------0---0-----||
                            .   .

(0:05)
||--------------------------------------------------------------------||
||*------------------------------------------------------------------*||
||--------------------------------------------------------------------||
||--3-3-3-3-6-6-6-6-----------------6-6-6-6-3-3-3-3-9-9-9-9-9-9-9-9---||
||*-1-1-1-1-4-4-4-4-5-5-5-5-5-5-5-5-4-4-4-4-1-1-1-1-7-7-7-7-7-7-7-7--*||
||------------------3-3-3-3-3-3-3-3-----------------------------------||


(0:12)
 Right Only
||----------------------------------||
||----------------------------------||
||----------------------------------||
||-3-3---6-8-8---6-9-9-\------------||
||-1-1---4-6-6---4-7-7-\------------||
||----------------------------------||


(0:14)
 Both
||------------------------------------||
||*----------------------------------*||
||------------------------------------||
||--3-3---6-8-8---6-9-9---9-----------||
||*-1-1---4-6-6---4-7-7---7-2---2----*||
||--------------------------0---0-----||
                            .   .

(0:18)
||------------------------------------------------------------||
||------------------------------------------------------------||
||------------------------------------------------------------||
||-3--3---------3--3---------3--3---------3--3---------3--4---||
||-1--1---------1--1---------1--1---------1--1---------1--2---||
||------------------------------------------------------------||


(0:25)
||--------------------------------------------------------------------||
||*------------------------------------------------------------------*||
||--------------------------------------------------------------------||
||--5-5-5-5-8-8-8-8-----------------8-8-8-8-5-5-5-5-1111111111111111--||
||*-3-3-3-3-6-6-6-6-7-7-7-7-7-7-7-7-6-6-6-6-3-3-3-3-9-9-9-9-9-9-9-9--*||
||------------------5-5-5-5-5-5-5-5-----------------------------------||


(0:32)
 Left
||--------------------------------------------------------------|
||--------------------------------------------------------------|
||--------------------------------------------------------------|
||-3-----------------------------------------------------6/9----|
||-1-----------------------------------------------------4/7----|
||--------------------------------------------------------------|
|                                                               |
|Right                                                          |
||--------------------------------------------------------------|
||--------------------------------------------------------------|
||--------------------------------------------------------------|
||-3-3---6-8-8---6-8-8---6-8-8---6-8-8---6-8-8---6-8-8---6-9-9--|
||-1-1---4-6-6---4-6-6---4-6-6---4-6-6---4-6-6---4-6-6---4-7-7--|
||--------------------------------------------------------------|


|--------------------------------------------------------------||
|--------------------------------------------------------------||
|--------------------------------------------------------------||
|-3-----------------------------------------------------9-9-9--||
|-1-----------------------------------------------------7-7-7--||
|--------------------------------------------------------------||
|                                                               |
|                                                               |
|--------------------------------------------------------------||
|--------------------------------------------------------------||
|--------------------------------------------------------------||
|-3-3---6-8-8---6-8-8---6-8-8---6-8-8---6-8-8---6-8-8---9-9-9--||
|-1-1---4-6-6---4-6-6---4-6-6---4-6-6---4-6-6---4-6-6---7-7-7--||
|--------------------------------------------------------------||


(0:40)
 Both
||---------------------------------------------------------------------||
||---------------------------------------------------------------------||
||---------------------------------------------------------------------||
||-3-3---6-8-8---6-8-8---6-8-8---6-8-8---6-8-8---6-8-8---6-8-8---2-----||
||-1-1---4-6-6---4-6-6---4-6-6---4-6-6---4-6-6---4-6-6---4-6-6---0-----||
||---------------------------------------------------------------------||
Добавлено: 09.11.2013
Другие материалы по этой песне:
  • Аккорды и текст

Страница создана 09.11.2013
http://primanota.ru/what-happens-next/youre-not-dead-until-youre-forgotten-chords.htm
Привет, Гость.
Предлагаем пройти революционный курс по гитаре.
Подарок от PrimaNota.Ru, забирай!