PrimaNota.ru - самый крупный в мире бесплатный архив песенных текстов, аккордов, табулатур и нот


What Happens Next - Too Close To Home - таба, видео

Регистрация Запомнить меня
Войти через:  Facebook Google Twitter Vk Yandex Mail.ru

What Happens Next - Too Close To Home - таба, видео

Печатать
Просмотров: 98
What Happens Next? - Too Close To Home
The First Year (2000)
Tabbed by ruker (Varuker@gmail.com)
Standard Tuning EADGBE

--------------
Key:
--------------
.  palm mute
/  slide up
\  slide down
--------------

(0:01)
||-------------------------------------------------------------||
||*-----------------------------------------------------------*||
||--------2-1h2p1--------2-1h2p1--------2-1h2p1--2---2-1---1---||
||------3--------3-----3--------3-----3--------3---3-----3-----||
||*---3--------------3--------------3-------------------------*||
||--1--------------1--------------1----------------------------||


(0:13)
||----------------------------------------------------||
||*--------------------------------------------------*||
||----------------------------------------------------||
||--------------------------------6-----5-------------||
||*-3-----6-----5-----8-----7-----4-----3-----6------*||
||--1-----4-----3-----6-----5-----------------4-------||


(0:20)
||------------------------------------------||
||------------------------------------------||
||------------------------------------------||
||-3--------------------/pickslide----------||
||-3------------3-3-3-3-/---up-----1-/-9----||
||-1------------1-1-1-1------------1-/-9----||
                . . . .

(0:24)                              4x
||------------------------------------||
||*----------------------------------*||
||------------------------------------||
||------------------6-6-6-6-----------||
||*-3-3-3-3-3-3-3-3-4-4-4-4-7-7-7-7--*||
||--1-1-1-1-1-1-1-1---------5-5-5-5---||


(0:32)
||--------------------------------------------------------||
||*------------------------------------------------------*||
||----------2-------------2-------------2-----2-2--1-1----||
||----------3-------------3-------------3------3----3-----||
||*-3-3-3-3-3-----3-3-3-3-3-----3-3-3-3-3----------------*||
||--1-1-1-1-1-----1-1-1-1-1-----1-1-1-1-1-----------------||
    . . . .       . . . .       . . . .

(0:42)
||--------------------------------------------------------------------||
||--------------------------------------------------------------------||
||--------------------------------------------------------------------||
||-----------------6-6---6-------------------------6---6---------3----||
||-3-3---3-3-3---3-4-4---4-7-7---7-3-3---3-3-3---3-4---4---------3----||
||-1-1---1-1-1---1---------5-5---5-1-1---1-1-1---1---------------1----||
                                                   .   .
Добавлено: 30.07.2013
Другие материалы по этой песне:
  • Аккорды и текст

Страница создана 30.07.2013
http://primanota.ru/what-happens-next/too-close-to-home-chords.htm
Привет, Гость.
Предлагаем пройти революционный курс по гитаре.
Подарок от PrimaNota.Ru, забирай!