PrimaNota.ru - самый крупный в мире бесплатный архив песенных текстов, аккордов, табулатур и нот


What Happens Next - Salmat Kaibigan - таба, видео

Регистрация Запомнить меня
Войти через:  Facebook Google Twitter Vk Yandex Mail.ru

What Happens Next - Salmat Kaibigan - таба, видео

Печатать
Просмотров: 80
What Happens Next? - Salmat Kaibigan
The First Year (2000)
Tabbed by ruker (Varuker@gmail.com)
Standard Tuning EADGBE

--------------
Key:
--------------
.  palm mute
/  slide up
\  slide down
--------------

(0:00)
||---------------------------------------------------------||
||---------------------------------------------------------||
||---------------------------------------------------------||
||-2----2----2----2----2----2----2----2----2---------------||
||-2----2----2----2----2----2----2----2----2---------------||
||-0----0----0----0----0----0----0----0----0---------------||


(0:08)                                                                                    3x
||------------------------------------------------------------------------------------------||
||*----------------------------------------------------------------------------------------*||
||------------------------------------------------------------------------------------------||
||--10-5-5-5-5-5-5-5-5-9--3-3-3-3-3-3-3-3-2-2-2-2-2-2-2-2-2-2-2-2-2-2-2-2-2-2-2-2-2-2-2-2---||
||*-8--3-3-3-3-3-3-3-3-7--1-1-1-1-1-1-1-1-0-0-0-0-0-0-0-0-0-0-0-0-0-0-0-0-0-0-0-0-0-0-0-0--*||
||------------------------------------------------------------------------------------------||


(0:17)
||-----------------------------------------------9--------||
||-----------------------------------------------9--------||
||---------------------------------------6-------6---6----||
||-10-5-5-5-5-5-5-5-5-9--3-3-3-3-3-3-3-3-6-----------6----||
||-8--3-3-3-3-3-3-3-3-7--1-1-1-1-1-1-1-1-4-----------4----||
||--------------------------------------------------------||


(0:21)
||--------------------------------------------------------------------||
||*------------------------------------------------------------------*||
||--------------------------------------------------------------------||
||------------------7-7-7-7-7-7-7-7-----------------7---7---7---7-----||
||*-2-2-2-2-5-5-5-5-5-5-5-5-5-5-5-5-2-2-2-2-5-5-5-5-5---5---5---5----*||
||--0-0-0-0-3-3-3-3-----------------0-0-0-0-3-3-3-3-------------------||


(0:28)                                                                                    3x
||------------------------------------------------------------------------------------------||
||*----------------------------------------------------------------------------------------*||
||------------------------------------------------------------------------------------------||
||--2-2-2-2-2-2-2-2-2-2-2-2-2-2-2-2-2-2-2-2-2-2-2-2-10-5-5-5-5-5-5-5-5-9--3-3-3-3-3-3-3-3---||
||*-0-0-0-0-0-0-0-0-0-0-0-0-0-0-0-0-0-0-0-0-0-0-0-0-8--3-3-3-3-3-3-3-3-7--1-1-1-1-1-1-1-1--*||
||------------------------------------------------------------------------------------------||


(0:38)
||---------9--------||
||---------9--------||
||-6-------6---6----||
||-6-----------6----||
||-4-----------4----||
||------------------||


(0:40)
||--------------------------------------------------------------------||
||*------------------------------------------------------------------*||
||--------------------------------------------------------------------||
||------------------7-7-7-7-7-7-7-7-----------------7---7---7---7-----||
||*-2-2-2-2-5-5-5-5-5-5-5-5-5-5-5-5-2-2-2-2-5-5-5-5-5---5---5---5----*||
||--0-0-0-0-3-3-3-3-----------------0-0-0-0-3-3-3-3-------------------||


(0:48)
||-----------------------------------------------------||
||-----------------------------------------------------||
||-----------------------------------------------------||
||-2--2--5\4/5-------5/7\5-----------------------------||
||-0--0--3\2/3-5--5--3/5\3-3--3------5--------3---5----||
||-------------3--3--------1--1------3--------1---3----||


(0:53)                                                        3x
||--------------------------------------------------------------||
||*------------------------------------------------------------*||
||--------------------------------------------------------------||
||------------------------9-8--\--------------------------------||
||*-2---2-2-2---2-2-2---2-7-6--\--3-3-3-3-3-3-3-3-5--4--7--6---*||
||--0---0-0-0---0-0-3---0---------1-1-1-1-1-1-1-1-3--2--5--4----||
        . .     . .     .         . . . . . . . .

(1:09)
||----------------------------------------------------------------------------------||
||----------------------------------------------------------------------------------||
||----------------------------------------------------------------------------------||
||-----------------------9-8--\-----------------------------------------------------||
||-2---2-2-2---2-2-2---2-7-6--\--3-3-3-3-3-3-3-3-5----4----7----6-----2-------------||
||-0---0-0-0---0-0-3---0---------1-1-1-1-1-1-1-1-3----2----5----4-----0-------------||
       . .     . .     .         . . . . . . . .
Добавлено: 03.07.2013
Другие материалы по этой песне:
  • Аккорды и текст

Страница создана 03.07.2013
http://primanota.ru/what-happens-next/salmat-kaibigan-chords.htm
Привет, Гость.
Предлагаем пройти революционный курс по гитаре.
Подарок от PrimaNota.Ru, забирай!