PrimaNota.ru - самый крупный в мире бесплатный архив песенных текстов, аккордов, табулатур и нот


What Happens Next - Museifu Shugi Bonzai - таба, видео

Регистрация Запомнить меня
Войти через:  Facebook Google Twitter Vk Yandex Mail.ru

What Happens Next - Museifu Shugi Bonzai - таба, видео

Печатать
Просмотров: 82
What Happens Next? - Museifu Shugi Bonzai
The First Year (2000)
Tabbed by ruker (Varuker@gmail.com)
Standard Tuning EADGBE

--------------
Key:
--------------
.  palm mute
/  slide up
\  slide down
~  vibrato
--------------

(0:00)
||------------------------------------------------||
||*----------------------------------------------*||
||------------------------9----------12-----------||
||--2----------6----------9----------12-----------||
||*-2----------6----------7----------10----------*||
||--0----------4----------7----------10-----------||


(0:14)                          4x
||--------------------------------||
||*------------------------------*||
||----------------9------12-------||
||--2------6------9------12-------||
||*-2------6------7------10------*||
||--0------4------7------10-------||


(0:26)                                                             4x
||-------------------------------------------------------------------||
||*-----------------------------------------------------------------*||
||-------------------------------------------------------------------||
||------------------8-8-8-8-8-8-8-8----------------------------------||
||*-8-8-8-8-8-8-8-8-6-6-6-6-6-6-6-6-2-2---2-2-2---2-2-2---2-2-2222--*||
||--6-6-6-6-6-6-6-6-----------------0-0---0-0-0---0-0-0---0-0-0000---||
                                    . .   . . .   . . .   . . ....

(0:41)                          4x
||--------------------------------||
||*------------------------------*||
||----------------9------12-------||
||--2------6------9------12-------||
||*-2------6------7------10------*||
||--0------4------7------10-------||


(0:51)                                                             4x
||-------------------------------------------------------------------||
||*-----------------------------------------------------------------*||
||-------------------------------------------------------------------||
||------------------8-8-8-8-8-8-8-8----------------------------------||
||*-8-8-8-8-8-8-8-8-6-6-6-6-6-6-6-6-2-2---2-2-2---2-2-2---2-2-2222--*||
||--6-6-6-6-6-6-6-6-----------------0-0---0-0-0---0-0-0---0-0-0000---||
                                    . .   . . .   . . .   . . ....

(1:06)         3x                            3x
||---------------|-----------------------------||
||*-------------*|*---------------------------*||
||---------------|--------------9~-------------||
||--9-8-7-9-8-7--|--12-12-12-12-9~-------------||
||*-7-6-5-7-6-5-*|*-10-10-10-10-7~------------*||
||---------------|-----------------------------||


(1:22)                        3x
||--------------|---------------|--------------||
||--------------|*-------------*|--------------||
||--------------|---------------|--------------||
||-12-12-12-12--|--9-8-7-9-8-7--|-12-12-12-12--||
||-10-10-10-10--|*-7-6-5-7-6-5-*|-10-10-10-10--||
||--------------|---------------|--------------||


(1:27)
||---------------------------------------------------------||
||---------------------------------------------------------||
||-------------------9--------12---------------------------||
||-2--------6--------9--------12----------------------2----||
||-2--------6--------7--------10----------------------2----||
||-0--------4--------7--------10----------------------0----||
Добавлено: 07.06.2013
Другие материалы по этой песне:
  • Аккорды и текст

Страница создана 07.06.2013
http://primanota.ru/what-happens-next/museifu-shugi-bonzai-chords.htm
Привет, Гость.
Предлагаем пройти революционный курс по гитаре.
Подарок от PrimaNota.Ru, забирай!