PrimaNota.ru - самый крупный в мире бесплатный архив песенных текстов, аккордов, табулатур и нот


What Happens Next - Ahora Mas Que Nunca - таба, видео

Регистрация Запомнить меня
Войти через:  Facebook Google Twitter Vk Yandex Mail.ru

What Happens Next - Ahora Mas Que Nunca - таба, видео

Печатать
Просмотров: 78
Уроки эстрадного вокала в Санкт-Петербурге
What Happens Next? - Ahora Mas Que Nunca
The Second Year (2001)
Tabbed by ruker (Varuker@gmail.com)
Standard Tuning EADGBE

--------------
Key:
--------------
.  palm mute
/  slide up
\  slide down
~  vibrato
nh natural harmonic
--------------

(0:00)
 Left Guitar
||----------------------------------||
||-7--------------------------------||
||-nh-------------------------------||
||----------------------------------||
||----------------------------------||
||----------------------------------||
|                                    |
|Right Guitar                        |
||----------------------------------||
||-12-------------------------------||
||-nh-------------------------------||
||----------------------------------||
||----------------------------------||
||----------------------------------||


Bass Intro (0:04)                 4x                  3x
||----------------------------------|-------------------|--------------||
||*--------------------------------*|*-----------------*|--------------||
||*-2-2-2-2-2--0---/8------0---5---*|*---------5-5-----*|--------------||
||----------------------------------|--7-7-6-6-----4-4--|-8--8--8--8---||


(0:15)
 Both Guitars
||--------------------------------------------------------||
||--------------------------------------------------------||
||--------------------------------------------------------||
||--------------------------------------------------------||
||-9-------------9--9----------9-9-9---------10-10-10-10--||
||-7-------------7--7----------7-7-7---------8--8--8--8---||
                                             .  .  .  .

(0:20)                             4x
||-----------------------------------||
||*---------------------------------*||
||-----------------------------------||
||------------------7-7-7-7----------||
||*-9-9-9-9-8-8-8-8-5-5-5-5-6-6-6-6-*||
||--7-7-7-7-6-6-6-6---------4-4-4-4--||


(0:26)
 Left Guitar
||----------------------------------||
||----------------------------------||
||----------------------------------||
||-/9~-----------------777710101010-||
||-------------9999888855558-8-8-8--||
||-------------77776666-------------||
|                                    |
|Right Guitar                        |
||----------------------------------||
||----------------------------------||
||----------------------------------||
||---------------------7------------||
||-9-----------9-------5---6--------||
||-7-----------7-----------4--------||


(0:29)
 Both Guitars
||--------------------||
||*------------------*||
||--------------------||
||---------7777-------||
||*-9999888855556666-*||
||--77776666----4444--||


(0:32)
||---------------------------------------||
||*-------------------------------------*||
||---------------------------------------||
||--9--------10---9--------10---13--10---||
||*-9----9-9-8----9----9-9-8----11--8---*||
||--7----7-7-8----7----7-7-8----11--8----||
         . .           . .

(0:43)
 Left Guitar
||----------------------------------||
||----------------------------------||
||----------------------------------||
||---------7777------------7777-----||
||-99998888555566669999888855556666-||
||-77776666----444477776666----4444-||
|                                    |
|Right Guitar                        |
||----------------------------------||
||----------------------------------||
||----------------------------------||
||----------------------------------||
||-9---------------9---9------------||
||-7---------------7---7------------||


(0:46)
 Both Guitars
||----------------------------------||
||----------------------------------||
||----------------------------------||
||---------7777------------7--------||
||-9999888855556666999988885---6----||
||-77776666----444477776666----4----||
Добавлено: 20.07.2013
Другие материалы по этой песне:
  • Аккорды и текст

Страница создана 20.07.2013
http://primanota.ru/what-happens-next/ahora-mas-que-nunca-chords.htm
Привет, Гость.
Предлагаем пройти революционный курс по гитаре.
Подарок от PrimaNota.Ru, забирай!