PrimaNota.ru - самый крупный в мире бесплатный архив песенных текстов, аккордов, табулатур и нот


Weye - We Miss You Piglet - бас-таба, видео

Регистрация Запомнить меня
Войти через:  Facebook Google Twitter Vk Yandex Mail.ru

Weye - We Miss You Piglet - бас-таба, видео

Печатать
Просмотров: 70
Band: Weye
Song: We Miss You, Piglet (Song 11)
Album: Live at Greg's 2 DVD
Website: www.weyemusic.com


Tuning: C Standard


Main tapping riff:

D#----------6-9-6------------6-----|
A#--------7-------7----7---------7-|
F----4--7----------7-----7---------|
C--5-----------------2-----2---2---|


Chord part:

D#-6--14--16--9-|
A#--------------|
F---------------|
C--5--14--10--8-|

Submitted by Phil R
Добавлено: 18.06.2013
Другие материалы по этой песне:
  • Аккорды и текст

Страница создана 18.06.2013
http://primanota.ru/weye/we-miss-you-piglet-chords.htm
Привет, Гость.
Предлагаем пройти революционный курс по гитаре.
Подарок от PrimaNota.Ru, забирай!