PrimaNota.ru - самый крупный в мире бесплатный архив песенных текстов, аккордов, табулатур и нот


Wet Willie - Dixie Rock - таба, видео

Регистрация Запомнить меня
Войти через:  Facebook Google Twitter Vk Yandex Mail.ru

Wet Willie - Dixie Rock - таба, видео

Печатать
Просмотров: 106
Guitar 1 (distortion)
Intro
e|---------------------------------------------------------------------------|
B|-3—(3)--------------------3-(3)--------------------------------------------|
G|-2—(2)----------0----0----2—(2)---------0----0-----------------------------|
D|-0—(0)--------2-----------0—(0)-------2------------------------------------|
A|--------0-2-3-----2-------------0-2-3-----2--------------------------------|
E|-----------------------3-----------------------3---------------------------|

Guitar 1 & 2 
Rhythm Figure 1
e|---------------------------------------------------------------------------|
B|-------3-------------3-----3-----3-----------3-----------3------------3----|
G|---0h2---2---0-----0-----0-----0---0h2---0h2---2---0---0---0h2---0h2----2--|
D|-0---------0---------------------------0---------0-------------0----------0|
A|---------------3-------2-----2-----------------------3---------------------|
E|---------------------------------------------------------------------------|

e|---------------------------------------------------------------------------|
B|-------3-----3-----------3-----------3-----3-------------------------------|
G|-0---0-----0---0h2---0h2---2---0---0-----0---0h2---------------------------|
D|-------------------0---------0---------------------------------------------|
A|---3-----2-----------------------3-----2-----------------------------------|
E|---------------------------------------------------------------------------|

Chorus Double Time Feel
Guitar 1 Rhythm Figure 2 

e|-2-x-2-(2)-2-2-2----------3-3-3-3-----------|
B|-3-x-3—(3)-3-3-3--3-3-3-3-3-3-3-3-----------|
G|-2-x-2—(2)-2-2-2--0-0-0-0-0-0-0-0-----------|
D|-0-x-0—(0)-0-0-0--0-0-0-0-0-0-0-0---Repeat--|
A|------------------3-3-3-3-0-0-0-0-----------|
E|--------------------------3-3-3-3-----------|

Guitar 3
e|-----------------------------------------------------------------------------------|
B|-------------9gb----ER-QR----ER----------------QR--ER--9gb--QR---ER----------------|
G|-QR-----ER---10gb----------------10-(10)~~~~----------10gb-----------10-~~~~-------|
D|---------------------------------12—(12)~~~~-------------------------12-~~~~--12---|
A|-----------------------------------------------------------------------------------|
E|-----------------------------------------------------------------------------------|

Guitar 2 Rhythm Fill 1
e|-------------------------------------------------------------| Rhythm Figure 1
B|-------------------------------------------------------------|
G|-------------------------------------------------------------|
D|-7-7-9-9-7-7-9-9-5-5-7-7----------------------------------4x-|
A|-5-5-5-5-5-5-5-5-3-3-3-3-5-5-7-------------------------------|
E|-------------------------3-3-3-------------------------------|


Bridge

Guitar 4

e|-----------15fb~~~-15-14-15fb-15fb-r---------------------------------------|
B|-WR-WR-ER----------------------------13-15~~~--15s-------------------------|
G|---------------------------------------------------------------------------|
D|---------------------------------------------------------------------------|
A|---------------------------------------------------------------------------|
E|---------------------------------------------------------------------------|

Guitar 1, 2 & 3
e|----3-----3---------------------------------------------------------------------|
B|-3--3--3--3--3-------------------3-3---------3---------3-----3-3---------3------|
G|-0--0--0--0--0--0-0--0--0-0----2-----2-0---0-----0---0-----2-----2-0---0-----0--|
D|-0--0--0--0--0--3-3--3--3-3--0---------------------0-----0----------------------|
A|-x--x--x--x-----3-3--3--3-3--------------3-----2---------------------3-----2----|
E|-3--3--3--3-----1-1--1--1-------------------------------------------------------|


e|---------------------------------------------------------------------------|
B|-----0--2-(2)--------------------------------------------------------------|
G|---0----2—(2)---------4-(4)--0---------------------------------------------|
D|-0------2—(2)---------4—(4)--2--3------------------------------------------|
A|--------0-(0)---------2—(2)--3--4------------------------------------------|
E|---------------------------------------------------------------------------|

Guitar Solo Double Time Feel
Guitar 1 Rhythm Figure 3 4x

e|---------------------------------------------------------------------------|
B|---------------------------------------------------------------------------|
G|---------------------------------------------------------------------------|
D|-------------------------10-10-5-5-----------------------------------------|
A|-12-12-14-14-12-12-14-14-10-10-5-5-----------------------------------------|
E|-10-10-10-10-10-10-10-10-8--8--3-3-----------------------------------------|

Guitar 4
e|----------------x---------------------------------------------------------------|
B|-12b---12b—12b-----12b--12------------------------------------------------------|
G|------------------------------12h14p12----12----12h14p12----12---12h14p12----12-|
D|---------------------------12—---------14----14----------14----14---------14----|
A|--------------------------------------------------------------------------------|
E|--------------------------------------------------------------------------------|

e|---------------------------------------------------------------------------|
B|---------------------------------------------------------------------------|
G|----12--12----11h14p11----11h14p11----11h14p11----11h14p11----11h14p11-----|
D|-14---14---13----------14----------14----------14----------14----------14--|
A|---------------------------------------------------------------------------|
E|---------------------------------------------------------------------------|






e|---------------------------------------------------------------------------|
B|---------------------------------------------------------------------------|
G|-11h14p11----11h14p11----11------s14h16p14----14h16p14----14----14h16p14---|
D|----------14----------14----14s------------16----------16----16----------16|
A|---------------------------------------------------------------------------|
E|---------------------------------------------------------------------------|
                                                       Guitar 1 Rhythm Figure 1 Start
e|---------------------------------------------------------------------------|
B|--------------------------------------------15—17b---17hb-17gb-gb-17fb-----|
G|-14h16p14----14h16p14----14h16p14----s14s16--------------------------------|
D|----------16----------16----------16---------------------------------------|
A|---------------------------------------------------------------------------|
E|---------------------------------------------------------------------------|

e|------------------------------------17--------------------------------------|
B|-15~~~------15-17fb~~~~rp15—17b—17b----17fb-r—15~~~~-15----15-17b~~~-17fb-r-|
G|--------16--——------------------------------------------16------------------|
D|----------------------------------------------------------------------------|
A|----------------------------------------------------------------------------|
E|----------------------------------------------------------------------------|

Rythmn Figure 1
Chorus 2x

Outro
Guitar 1 and 2 Rythmn Figure 2 till end

Guitar 4
e|---------------------------------------------------------------------------|
B|---------------------------------------------------------------------------|
G|-17h19-19-19-19-19-17h19-19-19-19-19-17h19-19-19-19-19-17h19-19-19-19-19---|
D|--0-----0--0--0--0--------0--0--0--0--0-----0--0--0--0--0-----0--0--0--0---|
A|---------------------------------------------------------------------------|
E|---------------------------------------------------------------------------|

e|---------------------------------------------------------------------------|
B|---------------------------------------------------------------------------|
G|-17h19-19-19-19-19-17h19-19-19-19-19-17h19-19-19-19-19-17h19-19-19-19-19---|
D|--0-----0--0--0--0--------0--0--0--0--0-----0--0--0--0--0-----0--0--0--0---|
A|---------------------------------------------------------------------------|
E|---------------------------------------------------------------------------|
Repeat until end
That's all listen to the song it will help you play this song if this tab is confusing.

 s  slide
 h  hammer-on
 p  pull-off
 ~  vibrato
 +  harmonic
 x  Mute note
 WR Whole Rest
 ER Eighth Rest
 QR Quarter Rest
 fb Full Bend
 r  Release bend
 hb hold bend
Добавлено: 09.07.2012
Вам также может быть интересно:
Другие материалы по этой песне:

Страница создана 09.07.2012
http://primanota.ru/wet-willie/dixie-rock-chords.htm
Привет, Гость.
Предлагаем пройти революционный курс по гитаре.
Подарок от PrimaNota.Ru, забирай!