PrimaNota.ru - самый крупный в мире бесплатный архив песенных текстов, аккордов, табулатур и нот


Wet Nuns - Why You So Cold - таба, видео

Регистрация Запомнить меня
Войти через:  Facebook Google Twitter Vk Yandex Mail.ru

Wet Nuns - Why You So Cold - таба, видео

Печатать
Просмотров: 31
-----------------------------------------------------------------
WHY YOU SO COLD? - Wet Nuns
-----------------------------------------------------------------

Tabbed by: Dom Tory
Email: dominic.tory@gmail.com

Tuning: Open G minor (DGDGBbd)

Use a slide (he uses metal but any will do) if possible if you wanna play it properly! 
I have indicated roughly where to use slide.

Intro (0:00-0:48)
                                                                          
   Gm                                                                     Fm
       x------------------------------USE SLIDE-------------------------------------------x
d |-0~-/15-15~----------------12\-0~-/15-15~----15----------------12-12\-0/9~-9-------9\0-|
Bb|-0~-/15----15\12-15/16-12~-12\-0~-/15-----15----15\12-15/16-12-12-12\-0/9~---9-----9\0-|
G |-0~------------------------12\-0~------------------------------12-12\-0/9~-----9---9\0-|
D |-0~----------------------------0~---------------------------------------9~-------9-9\0-|
G |-0~----------------------------0~----------------------------------------------------0-|
D |---------------------------------------------------------------------------------------|

  x------------------------------USE SLIDE---------------------------------------------------------x
d |-/15-15----15\12-------15-12\0-/15-15---15\--14\--13\--12----------12-12-12-12\0/9-9-------9\0~-|
Bb|-/15----15-------12/15----12\0-/15----15--\14--\13--\12---12\15-12----12----12\0/9---9---9-9\0~-|
G |--------------------------12\0----------------------------------------12----12\0/9-----9---9\0~-|
D |-----------------------------0-------------------------------------------------0-------------0~-|
G |-----------------------------0-------------------------------------------------0-------------0~-|
D |----------------------------------------------------------------------------------------------~-|

Verse (0:48-1:22)

d |---0-0-0---0-0-0-----0-0-0---0-0-0---0-0-0---0-0-----0-0-0--0-0-0-|
Bb|---0-0-0---0-0-0-----0-0-0---0-0-0---0-0-0---0-0-----0-0-0--0-0-0-|
G |---0-0-0---0-0-0-----0-0-0---0-0-0---0-0-0---0-0-----0-0-0--0-0-0-|
D |-5-5-5-5---0-0-5-3-5-5-5-5---0-0-0---0-0-0---0-0-----0-0-0--0-0-0-| x2
G |---------0-0-0-0-----------0-0-0-0-3-------5-----3-0-0-0-0--0-0-0-|
D |------------------------------------------------------------------|

d |---0-0-0---0-0-0-----0-0-0---0-0-0---0-0-0---0-0-----0-0-0--0-0-0-|
Bb|---0-0-0---0-0-0-----0-0-0---0-0-0---0-0-0---0-0-----0-0-0--0-0-0-|
G |---0-0-0---0-0-0-----0-0-0---0-0-0---0-0-0---0-0-----0-0-0--0-0-0-|
D |-5-5-5-5---0-0-5-3-5-5-5-5---0-0-0---0-0-0---0-0-----0-0-0--0-0-0-| Palm muted section x2
G |---------0-0-0-0-----------0-0-0-0-3-------5-----3-0-0-0-0--0-0-0-|
D |------------------------------------------------------------------|

Chorus (1:22-1:40) 

  xUSE SLIDEx
d |-3/55555-|
Bb|-3/55555-|
G |-3/55555-|
D |-3/55555-| Play the 5x Cm chord 3 times
G |-3/55555-|
D |---------|
    Cm  A#m                                                  
  x----------------------------------------USE SLIDE------------------------------------------x
d |-5555-3-00000-0000-3/5-00000-00000-3/55555-55555-5/77777-5555-3-00000-0000-3/5-00000-00000-|
Bb|-5555-3-00000-0000-3/5-00000-00000-3/55555-55555-5/77777-5555-3-00000-0000-3/5-00000-00000-|
G |-5555-3-00000-0000-3/5-00000-00000-3/55555-55555-5/77777-5555-3-00000-0000-3/5-00000-00000-|
D |-5555-3-00000-0000-3/5-00000-00000-3/55555-55555-5/77777-5555-3-00000-0000-3/5-00000-00000-|
G |-5555-3-00000-0000-3/5-00000-00000-3/55555-55555-5/77777-5555-3-00000-0000-3/5-00000-00000-|
D |-------------------------------------------------------------------------------------------|

Solo (1:40-1:58)

Try playing some of the verse rhythm with the solo with the Gm chord (open strings)

d |---------------------------|
Bb|---------------------------|
G |-/7-8/10~-3-5/6~-3-5/7-3-0-|
D |---------------------------| x2
G |---------------------------|
D |---------------------------|

Verse (1:58-2:16)

d |---0-0-0---0-0-0-----0-0-0---0-0-0---0-0-0---0-0-----0-0-0--0-0-0-|
Bb|---0-0-0---0-0-0-----0-0-0---0-0-0---0-0-0---0-0-----0-0-0--0-0-0-|
G |---0-0-0---0-0-0-----0-0-0---0-0-0---0-0-0---0-0-----0-0-0--0-0-0-|
D |-5-5-5-5---0-0-5-3-5-5-5-5---0-0-0---0-0-0---0-0-----0-0-0--0-0-0-| Palm muted section x2
G |---------0-0-0-0-----------0-0-0-0-3-------5-----3-0-0-0-0--0-0-0-|
D |------------------------------------------------------------------|

Chorus (2:16-2:34)

  xUSE SLIDEx
d |-3/55555-|
Bb|-3/55555-|
G |-3/55555-|
D |-3/55555-| Play the 5x Cm chord 3 times
G |-3/55555-|
D |---------|

  x----------------------------------------USE SLIDE------------------------------------------x
d |-5555-3-00000-0000-3/5-00000-00000-3/55555-55555-5/77777-5555-3-00000-0000-3/5-00000-00000-|
Bb|-5555-3-00000-0000-3/5-00000-00000-3/55555-55555-5/77777-5555-3-00000-0000-3/5-00000-00000-|
G |-5555-3-00000-0000-3/5-00000-00000-3/55555-55555-5/77777-5555-3-00000-0000-3/5-00000-00000-|
D |-5555-3-00000-0000-3/5-00000-00000-3/55555-55555-5/77777-5555-3-00000-0000-3/5-00000-00000-|
G |-5555-3-00000-0000-3/5-00000-00000-3/55555-55555-5/77777-5555-3-00000-0000-3/5-00000-00000-|
D |-------------------------------------------------------------------------------------------|

Bridge (2:34-2:50)

          x--USE SLIDE-x       x--USE SLIDE-x       xUSE SLIDEx
        (12th fret)
d |-00000-/12-1212121212-00000-/12-1212121212-00000-/12-5-3\0-00000-00000|
Bb|-00000-/12-1212121212-00000-/12-1212121212-00000-/12-5-3\0-00000-00000|
G |-00000-/12-1212121212-00000-/12-1212121212-00000-/12-5-3\0-00000-00000|
D |-00000----------------00000----------------00000-----------00000-00000| x2
G |-00000----------------00000----------------00000-----------00000-00000|
D |----------------------------------------------------------------------|

Chorus (2:50-3:08)

  xUSE SLIDEx
d |-3/55555-|
Bb|-3/55555-|
G |-3/55555-|
D |-3/55555-| Play the 5x Cm chord 3 times
G |-3/55555-|
D |---------|

  x----------------------------------------USE SLIDE------------------------------------------x
d |-5555-3-00000-0000-3/5-00000-00000-3/55555-55555-5/77777-5555-3-00000-0000-3/5-00000-00000-|
Bb|-5555-3-00000-0000-3/5-00000-00000-3/55555-55555-5/77777-5555-3-00000-0000-3/5-00000-00000-|
G |-5555-3-00000-0000-3/5-00000-00000-3/55555-55555-5/77777-5555-3-00000-0000-3/5-00000-00000-|
D |-5555-3-00000-0000-3/5-00000-00000-3/55555-55555-5/77777-5555-3-00000-0000-3/5-00000-00000-|
G |-5555-3-00000-0000-3/5-00000-00000-3/55555-55555-5/77777-5555-3-00000-0000-3/5-00000-00000-|
D |-------------------------------------------------------------------------------------------| 

Outro (3:08-3:35)

d |---0-0-0---0-0-0-----0-0-0---0-0-0---0-0-0---0-0-----0-0-0--0-0-0-|
Bb|---0-0-0---0-0-0-----0-0-0---0-0-0---0-0-0---0-0-----0-0-0--0-0-0-|
G |---0-0-0---0-0-0-----0-0-0---0-0-0---0-0-0---0-0-----0-0-0--0-0-0-|
D |-5-5-5-5---0-0-5-3-5-5-5-5---0-0-0---0-0-0---0-0-----0-0-0--0-0-0-| 
G |---------0-0-0-0-----------0-0-0-0-3-------5-----3-0-0-0-0--0-0-0-|
D |------------------------------------------------------------------|

                                      Rhythm change         
d |---0-0-0---0-0-0-----0-0-0---0-0-0---0-0---0-0-/12~----------|
Bb|---0-0-0---0-0-0-----0-0-0---0-0-0---0-0---0-0-/12~-12\11/12~|
G |---0-0-0---0-0-0-----0-0-0---0-0-0---0-0---0-0-/12~----------|
D |-5-5-5-5---0-0-5-3-5-5-5-5---0-0-0---0-0---0-0---------------|
G |---------0-0-0-0-----------0-0-0-0-3-----5-------------------|
D |-------------------------------------------------------------|

| /  slide up
| \  slide down
| h  hammer-on
| p  pull-off
| ~  ring out
| +  harmonic
| x  mute note
Добавлено: 09.12.2015
Другие материалы по этой песне:
  • Аккорды и текст

Страница создана 09.12.2015
http://primanota.ru/wet-nuns/why-you-so-cold-chords.htm
Привет, Гость.
Предлагаем пройти революционный курс по гитаре.
Подарок от PrimaNota.Ru, забирай!