PrimaNota.ru - самый крупный в мире бесплатный архив песенных текстов, аккордов, табулатур и нот


Weston - Record Shop - таба, видео

Регистрация Запомнить меня
Войти через:  Facebook Google Twitter Vk Yandex Mail.ru

Weston - Record Shop - таба, видео

Печатать
Просмотров: 114
-----------------------------------------------------------------------------
RECORD SHOP- Weston
-----------------------------------------------------------------------------

tabbed by SKunX (skunx@ix.netcom.com)

CHORDS

C    G    A    F

|---------------------|
|---------------------|
|---5-----------------|
|---5----5----7----3--|
|---3----5----7----3--|
|--------3----5----1--|

Riff:

|------------------------------------|
|------------------------------------|
|--5-4-5-4-5-4-----5-4-5-4-----------|
|--------------7-5----------7-5-3-2--|
|------------------------------------|
|------------------------------------|

Intro:

(drums start)

Gtr.1: C, G, A, F
Gtr.2: Riff

Verse1:
(no gtr)
that could be you that should be us
i listen well but talk too much
C G     A        F
i wanna spend my time around
C   G      A           F
the record store right by your house

Gtr.1: C, G, A, F
Gtr.2: Riff

Verse2:
i wanna talk but i won't tell
i really hate what i do well
i don't care much except about
the record store right by your house

Gtr.1: C, G, A, F
Gtr.2: Riff

Bridge:

G          A                   G
the record store right by your house
G          A                   G      F
the record store right by your house   right by your house
G     F               G                  F                G      F
right by your house the pavement record just came out oh wow

C (let ring)
are you in love? are you alone?
i do little with what i know
the only things i care about
C           G
are you and my guitar
A             F
and the corner record store right by your house

Gtr.1: C, G, A, F
Gtr.2: Riff

end on C
=============================================================================
Добавлено: 02.06.2012
Другие материалы по этой песне:
  • Аккорды и текст

Страница создана 02.06.2012
http://primanota.ru/weston/record-shop-chords.htm
Привет, Гость.
Предлагаем пройти революционный курс по гитаре.
Подарок от PrimaNota.Ru, забирай!