PrimaNota.ru - самый крупный в мире бесплатный архив песенных текстов, аккордов, табулатур и нот


Weston - Matinee - таба, видео

Регистрация Запомнить меня
Войти через:  Facebook Google Twitter Vk Yandex Mail.ru

Weston - Matinee - таба, видео

Печатать
Просмотров: 96
Date: Sat, 15 Nov 1997 11:42:39 -0600 (CST)
From: skunx@ix.netcom.com (Donna DeCarolis)
Subject: "Matinee" by Weston

-----------------------------------------------------------------------------
MATINEE- Weston
-----------------------------------------------------------------------------

tabbed by SkunX (skunx@ix.netcom.com)


CHORDS

D    F#   G

|------------------|
|------------------|
|---7--------------|
|---7----4----5----|
|---5----4----5----|
|--------2----3----|

Riff A:

|-----------------------------------------|
|-----------------------------------------|
|--7-7-7-7-7-7-7-11-9-7-9-7-7-7-7-7-7-7-7-|
|-----------------------------------------|
|--5-5-5-5-5-5-5-9--7-5-7-5-5-5-5-5-5-5-5-|
|-----------------------------------------|


Riff B:

|------------------------------|
|------------------------------|
|------------------------------|
|------------------------------|
|--9-7-9-7-9--7-9-7-5----------|
|---------------------7-5-5-3--|


Intro:

D         F#                  G
i guess i think you're sort of odd are you a messenger from god?
D            F#              G
you're not a boy you're not a girl you're too good to be from this world

Gtr.1: D, F#, G
Gtr.2: Riff A

Verse1:

D (let ring)
you're not at all like what you seem, are you an angel or a dream?
you're mostly here but never gone you're beautifulll but don't belong
D             F#            G
where did you come from? anywhere? you don't belong here
D
you don't belong here    you don't belong here you don't belong

Gtr.1: D, F#, G
Gtr.2: Riff A

Verse2:
maybe you are a little strange i hope you never think to change
i hope i fall out of a star and land exactly where you are
where did you come from? anywhere? you don't belong here
you don't belong here you don't belong here you don't belong

Gtr.1: D, F#, G
Gtr.2: Riff A

then

Gtr.1: D, F#, G
Gtr.2: Riff B

Verse3 (just Gtr.1):

D         F#                  G
i guess i think you're sort of odd are you a messenger from god?
D            F#              G
you're not a boy you're not a girl you're too good to be from this world

and if you fall i'll never miss i'll always catch you with a kiss
D             F#            G
and throw you back into the air you don't belong here

you don't belong here.....

Gtr.1: D, F#, G
Gtr.2: Riff A

Gtr.1: D, F#, G
Gtr.2: Riff B

(with a lot of "you don't belong here"s)

end on D
=============================================================================
Добавлено: 31.05.2012
Другие материалы по этой песне:
  • Аккорды и текст

Страница создана 31.05.2012
http://primanota.ru/weston/matinee-chords.htm
Привет, Гость.
Предлагаем пройти революционный курс по гитаре.
Подарок от PrimaNota.Ru, забирай!