PrimaNota.ru - самый крупный в мире бесплатный архив песенных текстов, аккордов, табулатур и нот


Westernhagen Marius Mueller - Jonny Walker - таба, видео

Регистрация Запомнить меня
Войти через:  Facebook Google Twitter Vk Yandex Mail.ru

Westernhagen Marius Mueller - Jonny Walker - таба, видео

Печатать
Просмотров: 94
Уроки эстрадного вокала в Санкт-Петербурге
Jonny Walker by Marius Mueller Westernhagen
Hi everybody,

here my interpretation of Jonny Walker. It's not perfect, but sounds good.
Any comments or corrections are welcome.

Cheers

Otto A


Verse:
   G         C            C              C
e|------|-0-------3--|-3-------0--|-1h0----------0--|
B|------|-----1------|-----1------|------1---3------|
G|------|---0-------0|---0-------0|----0-------0----|
D|------|------------|------------|-----------------|
A|---0-2|-3-----3----|-3-----3----|-3------3-------3|
E|-3----|------------|------------|-----------------|
          Jonny......Walker........bist du wieder da

   G         C            C             C             G
e|------|-0-------3--|-3-------0--|-1h0---------|--------------|
B|------|-----1------|-----1------|------1---3--|-3-------3---3|
G|------|---0-------0|---0-------0|----0-------0|-----0--------|
D|------|------------|------------|-------------|---0-------0--|
A|---0-2|-3-----3----|-3-----3----|-3------3----|--------------|
E|-3----|------------|------------|-------------|-3-----3-----3|
          Jonny......Walker........ich zahl.......bar....

   G         C            C            F            C           C
e|------|-0-------3--|-3-------0--|-1-------1--|-3-------3--|---------|
B|------|-----1------|-----1------|-----1------|-----2------|1--------|
G|------|---0-------0|---0-------0|---2-------2|---0-------0|---------|
D|------|------------|------------|------------|------------|---------|
A|---0-2|-3-----3----|-3-----3----|------------|-3-----3----|3-3-2-0--|
E|-3----|------------|------------|-1-----1----|------------|---------|
          Jonny......Walker........du hast.....  entaeucht.....


                                        |-verse to corus-|-verse to verse-|
      G            F            C         C                C G
e|------------|-1-------1--|------------|----------------|----------------|
B|-2-------2--|-----1------|-1-------1--|-1--------------|-1--------------|
G|-----0------|---2-------2|-----0------|----------------|----------------|
D|---0-------0|------------|---2-------2|----------------|----------------|
A|------------|------------|-3-----3----|-3-3-2-0--------|-3---0-2--------|
E|-3-----3----|-1-----1----|------------|----------------|---3------------|
  Jonny......du bist mein....Freund.....


Corus:
       G            G            F            C        C
e|------------|------------|------------|------------|-------------------|
B|-0-------0--|-0-------0--|-1-------1--|-1-------1--|-1-----------------|
G|-----0------|-----0------|-----2------|-----0------|-------------------|
D|---0-------0|---0-------0|---3-------3|---2-------0|-------------------|
A|------------|------------|------------|-3-----3----|-3-3-2-0-----------|
E|-3-----3----|-3-----3----|-1-----1----|------------|-------------------|
  Ich habs..versucht........ohne dich....aus......

       E            E           Am           Am
e|------------|------------|------------|------------|
B|-0-------0--|-0---1---1--|---------0--|-1---0------|
G|-----1------|------------|-2---2------|---------2--|
D|---2-------2|---2-------2|---2-------2|---2-------2|
A|------------|------------|-0-----0----|-0-----0----|
E|-0-----0----|-0-----0----|------------|------------|
  Wozu auch....du gefällst...ja


       F            F            C        C
e|------------|------------|------------|------------|
B|-1-------1--|-1-------1--|-1-------1--|-1----------|
G|-----2------|-----2------|-----0------|------------|
D|---3-------3|---3-------3|---2-------2|------------|
A|------------|------------|-3-----3----|-3-3-2-0----|
E|-1-----1----|-1-----1----|------------|------------|
 ...........Kein Mensch.....so gut zu wie du


       G            F           C
e|------------|------------|------------|------------|
B|-3-------3--|-1-------1--|-1-------1--|-1----------|
G|-----0------|-----2------|-----0------|------------|
D|---0-------0|---3-------3|---2-------2|------------|
A|------------|------------|-3-----3----|-3---0-2----|
E|-3-----3----|-1-----1----|------------|---0--------|
  ..Jonny du...lachst mich...aus


Guitar Tabs transcribed by:

Otto Afflerbach

mailto:otto.afflerbach@t-online.de

     
Добавлено: 22.08.2013
Другие материалы по этой песне:
  • Аккорды и текст

Страница создана 22.08.2013
http://primanota.ru/westernhagen-marius-mueller/jonny-walker-chords.htm
Привет, Гость.
Предлагаем пройти революционный курс по гитаре.
Подарок от PrimaNota.Ru, забирай!