PrimaNota.ru - самый крупный в мире бесплатный архив песенных текстов, аккордов, табулатур и нот


Wes Montgomery - Full House - таба, видео

Регистрация Запомнить меня
Войти через:  Facebook Google Twitter Vk Yandex Mail.ru

Wes Montgomery - Full House - таба, видео

Печатать
Просмотров: 63
Авторы музыки: Wes Montgomery

FULL HOUSE (Live)

As recorded by Wes Montgomery
(From the 1962 Album FULL HOUSE)

Music by John Leslie "Wes" Montgomery

Transcribed by Slowhand


Gtr I (E A D G B E) - 'Wes Montgomery - Electric Guitar'


  Q=188(8=s8)
  N.C.           N.C.
 3/4
  Gtr I
  Q  E E E E     E E E E Q    E a Q.   +E  E
|------------||-------------|---2s3----(3)---|
|----------4-||o-6---4-6----|----------------|
|------5-----||----5--------|--------------5-|
|------------||-------------|----------------|
|------------||o------------|----------------|
|------------||-------------|----------------|


  E E E E Q    E E E E E E   E E E E E a E
|------------|-------------|-----------2s3--|
|-4-4---4----|-------4-----|-6---4-6--------|
|-----5------|---5-------5-|---5------------|
|------------|-------------|----------------|
|------------|-------------|----------------|
|------------|-------------|----------------|


                            1.              2.
                                                       $
                                                           N.C.
  E E E E E E   E E E E Q    E E E E E E     Q  Q  E E     E E Q  E E
|-------------|------------|--------------||-----------||-------------|
|---6---4-----|------------|-------4-----o||-----------||o------------|
|---------5-3-|-5-3--------|---5-------5--||-----------||-------------|
|-------------|-----6-3----|--------------||-----------||--3-6------3-|
|-------------|------------|-------------o||---------3-||o------------|
|-------------|------------|--------------||-----------||-------------|


  E E Q  E E   E E E E E E   E E Q  E E
|------------|-------------|------------|
|------------|-------------|------------|
|---3--------|-------------|-3---3------|
|-3--------3-|---6---3-6-3-|---6----6---|
|------------|-------------|----------3-|
|------------|-------------|------------|


  E E Q  Q    E E Q  E E   E E E E E E
|-----------|------------|--------------|
|-----------|------------|--------------|
|-----------|---3--------|--------------|
|-3-6-------|-3--------3-|---6---3-6----|
|-----------|------------|--------------|
|-----------|------------|--------------|


     C7+9   N.C.
  Q  H      E E Q  E E   E E Q  E E   E E E E E E   E E Q  E E   E E Q  Q
|---------|------------|------------|-------------|------------|------------|
|----4----|------------|------------|-------------|------------|------------|
|----3----|------------|---3--------|-------------|-3---3------|------------|
|----2----|-3-6------3-|-3--------3-|---6---3-6-3-|---6----6---|-3-6--------|
|----3----|------------|------------|-------------|----------3-|------------|
|---------|------------|------------|-------------|------------|------------|


                              1.
  E E Q  E E   E E E E +E  E   H    +E  E
|------------|---------------|-------------||
|------------|---------------|------------o||
|---3--------|---------------|-------------||
|-3----------|-3-6-5---------|-3----(3)----||
|----------3-|-------6-(6)-3-|----------3-o||
|------------|---------------|-------------||


 2.
                  N.C.
  E Q  E +E  E    H.        Q  a Q  E E
|--------------||---------|-------------|
|--------------||-6-------|----6s8------|
|------------5-||---------|-----------8-|
|-3-5--6-(6)---||---------|-------------|
|--------------||---------|-------------|
|--------------||---------|-------------|


                                                            C7b9   N.C.
   H.        Q  a Q  E E   H.        Q  E E E E   H.        H    E E
|----------|-------------|---------|------------|---------|-2--------||
|----------|----4s6------|---------|------------|---------|-2--------||
|----------|-----------6-|---------|--------3-4-|-5-------|-3--------||
|-10-------|-------------|-8-------|----5-6-----|---------|----------||
|----------|-------------|---------|------------|---------|--------3-||
|----------|-------------|---------|------------|---------|----------||


  N.C.
  E E Q  Q    E E Q  E E   E E E E E E   E E Q  Q    E E Q  E E   E E Q  E E
|-----------|------------|-------------|-----------|------------|-------------|
|-----------|------------|-------------|-----------|------------|-------------|
|-----------|---3--------|-------------|-3---3-----|------------|---3---------|
|-3-6-------|-3--------3-|---6---3-6-3-|---6----6--|-3-6------3-|-3--------3--|
|-----------|------------|-------------|-----------|------------|-------------|
|-----------|------------|-------------|-----------|------------|-------------|


                   C7+9   N.C.
  E E E E E E   Q  H      E E Q  Q    E E Q  E E   E E E E E E   E E Q  E E
|-------------|---------|-----------|------------|-------------|-------------|
|-------------|----4----|-----------|------------|-------------|-------------|
|-------------|----3----|-----------|---3--------|-------------|-3---3-------|
|---6---3-6---|----2----|-3-6-------|-3--------3-|---6---3-6-3-|---6----6----|
|-------------|----3----|-----------|------------|-------------|----------3--|
|-------------|---------|-----------|------------|-------------|-------------|


                                   To Coda
  E E Q  E E   E E Q  E E   E E E E +E  E
|------------|------------|----------------|
|------------|------------|----------------|
|------------|---3--------|----------------|
|-3-6------3-|-3----------|-3-6-5----------|
|------------|----------3-|-------6-(6)-3--|
|------------|------------|----------------|


                Guitar Solo
                 N.C.
  E E E E E E    a E E +H       +Q.   E E E
|-------------||-2s3-3-(3)----|-(3)---6-3-----|
|-----------4-||--------------|-----------3---|
|-------3-5---||--------------|---------------|
|-3-5-6-------||--------------|---------------|
|-------------||--------------|---------------|
|-------------||--------------|---------------|


  E Q  E Q    Q  E E E E   Q  E E +E  E
|-----------|----------8-|-6------------|
|-----------|--------6---|----8-------8-|
|-5-5-------|------5-----|------5-(5)---|
|-----------|------------|--------------|
|-----------|------------|--------------|
|-----------|------------|--------------|


  Q  E E +E  a E   +E  Q  E E E   E E E E E E
|----------------|--------------|-------------|
|-6----------6s7-|-(7)-6--5-4---|-----4-------|
|----7-----------|------------4-|-3-----6---3-|
|------8-(8)-----|--------------|---6-----6---|
|----------------|--------------|-------------|
|----------------|--------------|-------------|


  E E E E +E  S S   E E E E E E
|-----------------|-3-----------|
|---------------4-|---6-3-------|
|-5-----------5---|-------3-5---|
|---3-5-6-(6)-----|-----------6-|
|-----------------|-------------|
|-----------------|-------------|


  +E  E Q  E a E   E Q.   S S S S   Q  Q  S S S S
|----------------|---6------------|----6----------|
|------------7s8-|--------8h9p8p6-|-8-----8h9p8p6-|
|----------------|----------------|---------------|
|-(6)------------|----------------|---------------|
|----------------|----------------|---------------|
|----------------|----------------|---------------|


  Q  Q  a E E   E E Q  Q    a E E Q  Q    E  E  E  E  E  E    Q   E  E E  E
|----6--6s7-6-|-----------|-------------|---------------11-|-10--13------10-|
|-8-----------|-9-6-------|-------------|------------13----|--------11-9----|
|-------------|-----8-----|-4s5---------|------10-13-----8-|--7--10-------7-|
|-------------|-----------|-----6-------|---10-------10----|---------8-6----|
|-------------|-----------|-------------|-------8-11-------|----------------|
|-------------|-----------|-------------|----8-------------|----------------|


                          |-3-|
  E E E E E E   E E E E E S S S   a Q  E E +E  E   Q  Q  E  a  E
|---8---------|-----------------|--------6-(6)---|---------10s11--|
|-----8-------|---------------5-|-7s8--6---------|----------------|
|---5---7-5---|-------------5---|----------------|----------------|
|-----5-----6-|---3---5---6-----|----------------|----------------|
|-------5-3---|-----------------|----------------|----------------|
|-----------4-|---1-------------|----------------|----------------|


   +Q.   E E E   E E E E E E   E E E E E E   +Q   E E E E   +E  E E E E E
|-(11)---9-7-8-|---6-4-------|-----4---6-3-|-(3)----------|---------------|
|--------------|-------5-4---|---6---------|------4---6-3-|-(3)-----------|
|--------------|-----------6-|-5-----------|--------5-----|-----3---------|
|--------------|-------------|-------------|--------------|-------5---3-5-|
|--------------|-------------|-------------|--------------|---------6-----|
|--------------|-------------|-------------|--------------|---------------|


  |-3-|
  E E E E E E E   E E Q  E E   E E E E Q    E a E E E Q    E E E E E E
|-----------6-5-|-4-8----6---|------------|--------------|-------------|
|-----5-8-6-----|----------8-|------------|---5s6---5----|-----------6-|
|---5-----------|------------|-7---5------|-----------6--|---------5---|
|-6-------------|------------|---8---6----|--------------|-8-5-6-8-----|
|---------------|------------|------------|--------------|-------------|
|---------------|------------|------------|--------------|-------------|


                                                 |-3-| |-3-|
  E E E E E E    E E  E E E  E   q  E  E E  E    E E E E E E E E   Q  E E E E
|-------------|----------------|-8--8---------|------------------|------------|
|-9-6-9-6-----|-11-8-11-8------|------11-8----|-11-9-7-6---------|--------6-7-|
|---------6---|-----------9----|-----------11-|----------8-6-4---|----6-8-----|
|-----------9-|-------------11-|--------------|----------------7s|=8----------|
|-------------|----------------|--------------|------------------|------------|
|-------------|----------------|--------------|------------------|------------|


  E E E E  E a E   +E  S S E E S S E
|----------------|-------------------|
|------------5s6-|-(6)-6-------------|
|---8------------|-------6-5---------|
|-----8----------|-----------8-6p5-3-|
|-------9-11-----|-------------------|
|----------------|-------------------|


  E E E E E  E    Q   E E +E  E   Q  E E +E  E
|-----4---8----|-10--10-8-(8)-8-|---------------|
|-4-----6---11-|----------------|-9--9-8-(8)-8--|
|---5----------|----------------|---------------|
|--------------|----------------|---------------|
|--------------|----------------|---------------|
|--------------|----------------|---------------|


                                   |--3--|
   E E E E E E   Q  E  a  Q   E    E  E  E  E  E  a  E  E
|--------------|----------------|-------------------------|
|-11-8---------|-------------11-|----------------------11-|
|------7---5---|------11s12-----|-13p12p10-12----11s12----|
|--------8---6-|----------------|-------------10----------|
|--------------|----------------|-------------------------|
|--------------|----------------|-------------------------|


   |--3--|
   E  E  E  E  a  E  +E   E   E  E E  E E  E
|---------------------------|-----------------|
|-------------11s12-(12)-11-|-9---------------|
|-13p12p10-12---------------|---10------8-----|
|---------------------------|------9------10--|
|---------------------------|--------11-------|
|---------------------------|-----------------|


                                          |--3--|  |--3--|
   E E E  E  E E    E  E  E  E  +E   E    E  E  E  E  E  E  E  E
|------8----11-9-|---------------------|-------------------------|
|-10-----11------|-13---------------13-|-------------------------|
|----9-----------|----10-12-13-(13)----|-13p12p10----------------|
|----------------|---------------------|----------12-10----------|
|----------------|---------------------|----------------11-10----|
|----------------|---------------------|----------------------13-|


   |-3--|       |-3-|
   E  E E  E E  E E E    Q   E  E  +E   E
|-------------------8-|-15--13-10-(10)----|
|-----------------8---|----------------13-|
|-------9-12-9-10-----|-------------------|
|----10---------------|-------------------|
|-11------------------|-------------------|
|---------------------|-------------------|


                           |--3--|
   E  E  Q   S  S  S  S    E  E  E  E  E E  a  E
|-----------------------|------------------------|
|-11-10-----------------|------------------11s12-|
|-------13--12h13p12p10-|------------------------|
|-----------------------|-12-10------------------|
|-----------------------|-------11-10------------|
|-----------------------|-------------13---------|


  E  E E  E  E  E    E  E Q  Q        +Q    E E E E
|-----------------|-----------------|------------------|
|---11------------|----------6------|-(6)---6-----6----|
|--------13-10----|----10----9b10===|=(9)r--------9b10-|
|--------------10-|-13--------------|------------------|
|-----------------|-----------------|------------------|
|-----------------|-----------------|------------------|


  E E E E     E E   Q     E E E E      E E E E     E E
|-----------------|------------------|-----------------|
|---6---------6---|-6-----6-----6----|---6---------6---|
|-------9pb10-----|-9b10--------9b10-|-------9pb10-----|
|-----------------|------------------|-----------------|
|-----------------|------------------|-----------------|
|-----------------|------------------|-----------------|


  Q     E E E E      E E E E     E E   E E E E E E
|------------------|---6-----------7-|-----7--------|
|-6-----6-----6----|---6---------6---|-9-6---6-9-6--|
|-9b10--------9b10-|-------9pb10-----|--------------|
|------------------|-----------------|--------------|
|------------------|-----------------|--------------|
|------------------|-----------------|--------------|


  E E E E E a E   +Q.   E E E   E E Q  E E
|-6-------------|-------------|------------|
|---6-9-----7s8-|-(8)---------|-6----------|
|-------9-8-----|-------5-8-5-|----------5-|
|---------------|-------------|---8--------|
|---------------|-------------|------------|
|---------------|-------------|------------|


  S S E S S E S S E   E E Q  E E   S S E S S E S S E
|-----6-----6-----6-|------------|-----6-----6-----6--|
|-7s8---7s8---7s8---|-6----------|-7s8---7s8---7s8----|
|-------------------|----------5-|--------------------|
|-------------------|---8--------|--------------------|
|-------------------|------------|--------------------|
|-------------------|------------|--------------------|


  E E E E E E   E E E E Q    E Q  E E E
|-------------|------------|----------6-|
|-6---6---6---|-6----------|---6--8-9---|
|-------------|---9-6---9--|------------|
|---8---8---9-|------------|------------|
|-------------|------------|------------|
|-------------|------------|------------|


  Q  Q  E E   Q  E E +E  E   Q  E E +E  E
|-6--6--6---|------------8-|-6--6----------|
|---------9-|-8--8---------|------9-(9)----|
|-----------|------5-(5)---|------------5--|
|-----------|--------------|---------------|
|-----------|--------------|---------------|
|-----------|--------------|---------------|


                   |-3--|        |-3-|
  Q  E E Q    E E  E  E E E E    E E E  E  E  +E   E
|-----------|-----------------|------8-11-15-(15)-13-|
|-8--6------|-------------8---|----8-----------------|
|------7-5--|-----------9---9-|-10-------------------|
|-----------|--------10-------|----------------------|
|-----------|---8-11----------|----------------------|
|-----------|-----------------|----------------------|


   a  Q.    E  E  E    +E   E  E  E  E  E
|-13s14----13-11-10-|-(10)-----------------|
|-------------------|------13-12-----------|
|-------------------|------------13-12-10--|
|-------------------|----------------------|
|-------------------|----------------------|
|-------------------|----------------------|


   |--3--|  |--3--|          |-3--|
   E  E  E  E  E  E  E  E    E  E E E  E  E E
|-------------------------|-------------------|
|-------------------------|---------8----11-8-|
|-12h13p10----------------|-------9---10------|
|----------12-10----------|----10-------------|
|----------------11-10----|-11----------------|
|----------------------13-|-------------------|


  E E E E E E   Q  E E E E   a Q  a Q  a Q
|-------------|----------4-|-7s8--7s8--7s8--|
|-------------|--------6---|----------------|
|-7---5-------|------5-----|----------------|
|---8---6-5---|------------|----------------|
|-----------8-|------------|----------------|
|-------------|------------|----------------|


                     |-3-|
  a Q  a Q  a Q    a E E E E E +E  E
|-7s8--7s8--7s8--|-6s7-6-4-6-4-(4)---|
|----------------|-----------------6-|
|----------------|-------------------|
|----------------|-------------------|
|----------------|-------------------|
|----------------|-------------------|


  E E E E Q    a  E Q  E Q    a  E Q  E  E E
|------------|--------------|-----------------|
|-4----------|------9--9-9--|------9--9-11-8--|
|---5--------|-9s10---------|-9s10------------|
|-----8-6----|--------------|-----------------|
|---------8--|--------------|-----------------|
|------------|--------------|-----------------|


                                                          |-3--|
  E  E E E Q    E E E E E E   E E E E E E   E E E E E E   E  E E  Q  E E
|-------------|---------6---|-9-----------|-----6-------|-----------------|
|-------------|-------7---9-|-------6-9---|-7-9---9-7---|------------9----|
|--------8-8--|-----8-------|---6-8-----8-|-----------8-|-9h10p9-------9--|
|---10--------|---9---------|-------------|-------------|--------11-------|
|-------------|-------------|-------------|-------------|-----------------|
|-------------|-------------|-------------|-------------|-----------------|


  E  E E E  a  Q     Q.    E  E  E    Q   E  E  +E   E
|-8----9-8-13s14--|-15----15-15-11-|-11--13-13-(13)-10-|
|---11------------|----------------|-------------------|
|-----------------|----------------|-------------------|
|-----------------|----------------|-------------------|
|-----------------|----------------|-------------------|
|-----------------|----------------|-------------------|


   Q   E  E  +E   E    S  S  S  S  E  E  E  E
|-10----------------|-10h11p10-----------------|
|-----11-11-(11)----|----------13-11-----------|
|----------------12-|----------------13-12-10--|
|-------------------|--------------------------|
|-------------------|--------------------------|
|-------------------|--------------------------|


   +E  E E E E E   E E E a  E  +E  E    E E  Q  E  E
|----------------|-------------------|---------------|
|----------------|-----------------9-|-12-9-11--9----|
|-(10)-7---5-----|-------9s10-(10)---|------------10-|
|--------8---6---|-5-----------------|---------------|
|----------------|---8---------------|---------------|
|--------------8-|-------------------|---------------|


  E  E E  E E  E   S  S  E Q  Q    S  S  E Q  E a  E
|----------------|---------------|-------------------|
|----------------|---------------|------11-----------|
|-8--------------|------10-------|-9s10--------------|
|---10-9----8----|-9s10----------|--------------9s10-|
|--------11---11-|---------------|-------------------|
|----------------|---------------|-------------------|


  E  E E  E  E  E    E  E  E  E  E  E   S  S  E Q  Q
|-----------------|-------------------|---------------|
|-----------------|-11-13-11----------|---------------|
|---10------10----|----------13-10----|------10-------|
|--------10----10-|-------------------|-9s10----------|
|-----------------|----------------11-|---------------|
|-----------------|-------------------|---------------|


               |-3--|        |--3--|
  S  S  E E E  E  E E    Q   E  E  E E  E
|---------------------|-------------------|
|------11---9-12p11p9-|-11----------------|
|-9s10----------------|-----11p10----9-10-|
|---------------------|-----------13------|
|---------------------|-------------------|
|---------------------|-------------------|


                                       |-3--|
  E  a  E  E  E  a  Q     Q   Q  Q     E  E E  E  E Q
|----------------------|------------|------------------|
|---12s13-11----12s13--|------------|------------------|
|------------13--------|-12--12-----|-------9-12-10----|
|----9s10--8-----9s10--|------------|----10------------|
|------------11--------|-10--10-----|-11---------------|
|----------------------|------------|------------------|


   a  Q   a  Q   E  E    E  E  E  E Q
|---------------------|-----------------|
|---------------11----|-----------------|
|-11s12--11s12-----12-|-------10--------|
|---------------------|-13-10-----------|
|--9s10---9s10--------|----------11-----|
|---------------------|-----------------|


                           |--3--|
   a  Q   a  Q  E  E    a  E  E  E  Q  Q    E  E E E E  E
|--------------------|----------11-10-----|---------------|
|--------------------|-------13-----------|---------------|
|-11s12--11s12----10-|-12s13--------------|---10---8------|
|--------------------|--------------------|------------11-|
|--9s10---9s10-------|--------------------|----8---6------|
|--------------------|--------------------|-------------9-|


                                |-3--|
  E  E E  E Q     Q   Q  E E    E  E E  a  E  E  +E  E
|--------------|-------------|---------------------------|
|--------------|-------------|---------------11-(11)-----|
|-----------9--|-12--12------|-------8-11s12-------------|
|---10---10----|-------------|----10---------------------|
|-----------7--|-10--10----8-|-11------------------------|
|----8----8----|-------------|---------------------------|


   a  Q   a  Q   E  E    E  E  E  E  +E  E
|---------------------|--------------------|
|---------------------|--------------------|
|-11s12--11s12--------|-------12-----------|
|---------------------|-10-13----12-(12)---|
|--9s10---9s10-----11-|--------------------|
|---------------13----|--------------------|


                               |--3--|
   a  Q   a  Q  E  E    a  Q   E  E  E Q    E  E  Q  E  E
|--------------------|--------------------|---------------|
|-----------------13-|--------------------|---------------|
|-11s12--11s12-------|-11s12--------------|---11-10--8s10-|
|--------------------|--------12-10-------|---------------|
|--9s10---9s10-------|--------------11----|----9--8--6s=8-|
|--------------------|--------------------|---------------|


  E  E E  E Q     Q   Q  Q    E  E E  E E E
|--------------|------------|---------------|
|--------------|-13--13-----|---11----------|
|---12---13----|------------|--------13---x-|
|--------------|-10--10-----|----8----------|
|---10---11----|------------|--------11---x-|
|--------------|------------|---------------|


   Q   Q  Q    E  E E  E E  E    Q   E  E E  E
|------------|----------------|-----------------|
|------------|----------------|-13--13-11---11--|
|-12--12-----|--------10---13-|-----------------|
|------------|---10-----------|-10--10--8----8--|
|-10--10-----|---------8---11-|-----------------|
|------------|----8-----------|-----------------|


   Q   E  E  +E   E    Q   E  E E  E    Q   E  E E  E
|-------------------|----------------|----------------|
|-11----------------|----------------|----------------|
|-----13-13-(13)-13-|-12--12-10---10-|----------------|
|--8----------------|----------------|-13--13-11---11-|
|-----11-11-(11)-11-|-10--10--8----8-|----------------|
|-------------------|----------------|-11--11--9----9-|


  a  Q   E  E E  E    Q   E  E  +E   E    E  E Q  Q
|------------------|-11--13-10-(10)----|-10----------|
|---------------13-|----------------11-|----11-9--9--|
|-------10-13------|--8--10--7--(7)----|--7----------|
|-9s10----------10-|-----------------8-|-----8-6--6--|
|--------8-11------|-------------------|-------------|
|-7s=8-------------|-------------------|-------------|


  E E E E E E   E E Q  Q    Q  E  a  E  +Q     E  E E  E  E  E    Q   Q  Q
|-------------|-----------|------12s13-(13)--|---11------------|-------------|
|-8s9s8-------|-----------|------------------|--------13-11----|-------------|
|-------7s5---|-----------|-------9s10-(10)--|----8---------13s|=10--10------|
|-5s6s5-----6-|-5-3-------|------------------|--------10--8----|-------------|
|-------5s3---|-----------|------------------|--------------11s|==8---8------|
|-----------4-|-3-1-------|------------------|-----------------|-------------|


  Q  E E Q    Q  a E E Q    Q  E E Q    E Q.   Q    E Q.   Q    E Q.   Q
|-----------|-8--7s8------|-6---------|-6s9----6--|-----------|-6s9----6--|
|-9--6------|--------8-5--|----8-4----|-----------|-6s9----6--|-----------|
|------6-3--|-5--4s5------|-3------5--|-3s6----3--|-----------|-3s6----3--|
|-6--3------|--------5-2--|----5-1----|-----------|-3s6----3--|-----------|
|------4-1--|-------------|--------3--|-----------|-----------|-----------|
|-----------|-------------|-----------|-----------|-----------|-----------|


  Q  E E E E   E E E E Q    E E E Q.     +Q.   a Q  E   E E Q  Q    Q  E E E E
|------8-9-8-|------------|------------|--------------|-----------|------------|
|------------|---9--------|-8s7-8-9----|-(9)---7s8----|-----------|----------7-|
|------5-6-5-|-------9-8--|------------|------------8-|-7s5-7--5--|------5-----|
|------------|---6--------|-5s4-5-6----|-(6)---4s5----|-----------|----------4-|
|------------|-------7-6--|------------|------------6-|-5s3-5--3--|------3-----|
|------------|------------|------------|--------------|-----------|------------|


  E E E E +E  E   E E Q  Q    E E E E E E
|---------------|-----------|-------------|
|-8s7-8-9-(9)-8-|---7-8--9--|-9-7-8-9---9-|
|---------------|-----------|-------------|
|-5s4-5-6-(6)-5-|---4-5--6--|-6-4-5-6---6-|
|---------------|-----------|-------------|
|---------------|-----------|-------------|


  E E E E Q    Q  E  E  +E   E    Q   E  E  +E   E
|-------8-9--|-8--8-11-(11)-11-|-10--10s15-(15)-15--|
|---8-9------|-----------------|--------------------|
|-------5-6--|-5--5--8--(8)--8-|--7---7s12-(12)-12--|
|---5-6------|-----------------|--------------------|
|------------|-----------------|--------------------|
|------------|-----------------|--------------------|


   Q   E  E  +E   E    Q   E  E  +E   E
|-10--10s15-(15)-15-|-10--10s15-(15)-15-|
|-------------------|-------------------|
|--7---7s12-(12)-12-|--7---7s12-(12)-12-|
|-------------------|-------------------|
|-------------------|-------------------|
|-------------------|-------------------|


  E E E  E  +E   E    Q   E  E  +E  E   E  E E  E E E
|-8-8-8s15-(15)-15-|-13--11-10-(10)-9-|---------------|
|------------------|------------------|---13---11-9-7-|
|-5-5-5s12-(12)-12-|-10---8--7--(7)-6-|---------------|
|------------------|------------------|---10----8-6-4-|
|------------------|------------------|---------------|
|------------------|------------------|---------------|


                Sax Solo                Piano Solo
                                            D.S. al Coda
                 N.C.                    N.C.
  E E E E E E    H.        Wx111         Wx111        W
|-------------||---------|------------||------------|-------||
|-8-6-------9-||-6-------|------------||------------|-------||
|-----8-5-8---||---------|------------||------------|-------||
|-5-3-------6-||-3-------|------------||------------|-------||
|-----6-3-6---||---------|------------||------------|-------||
|-------------||---------|------------||------------|-------||


  &
                 N.C.
  Q  E E E E     E E E E Q    E a Q.   +E  E
|------------||-------------|---2s3----(3)---|
|----------4-||o-6---4-6----|----------------|
|------5-----||----5--------|--------------5-|
|-3----------||-------------|----------------|
|------------||o------------|----------------|
|------------||-------------|----------------|


  E E E E Q    E E E E E E   E E E E E a E
|------------|-------------|-----------2s3---|
|-4-4---4----|-------4-----|-6---4-6---------|
|-----5------|---5-------5-|---5-------------|
|------------|-------------|-----------------|
|------------|-------------|-----------------|
|------------|-------------|-----------------|


               1.                           2.
  E E E E E E   E E E E Q    E E E E E E     E E E E +Q     Wx16
|-------------|------------|--------------||--------------|---------*|
|---6---4-----|------------|-------4-----o||--------------|---------*|
|---------5-3-|-5-3--------|---5-------5--||-5-3----------|---------*|
|-------------|-----6-3----|--------------||-----6-3-(3)--|---------*|
|-------------|------------|-------------o||--------------|---------*|
|-------------|------------|--------------||--------------|---------*|


Duration Legend
---------------
W - whole; H - half; Q - quarter; E - 8th; S - 16th; T - 32nd; X - 64th; a - acciaccatura
+ - note tied to previous; . - note dotted; .. - note double dotted
Uncapitalized letters represent notes that are staccato (1/2 duration)
Irregular groupings are notated above the duration line
Duration letters will always appear directly above the note/fret number it represents the
duration for.  Duration letters with no fret number below them represent rests.  Multi-
bar rests are notated in the form Wxn, where n is the number of bars to rest for.  Low
melody durations appear below the staff

Tablature Legend
----------------
 h   - hammer-on
 p   - pull-off
 b   - bend
 pb  - pre-bend
 r   - bend release (if no number after the r, then release immediately)
 /\  - slide into or out of (from/to "nowhere")
 s   - legato slide
 S   - shift slide
  - natural harmonic
[n]  - artificial harmonic
n(n) - tapped harmonic
 ~   - vibrato
 tr  - trill
 T   - tap
 TP  - trem. picking
 PM  - palm muting
\n/  - tremolo bar dip; n = amount to dip
 \n  - tremolo bar down
 n/  - tremolo bar up
/n\  - tremolo bar inverted dip
 =   - hold bend; also acts as connecting device for hammers/pulls
 <>  - volume swell (louder/softer)
 x   - on rhythm slash represents muted slash
 o   - on rhythm slash represents single note slash

Misc Legend
-----------
 |  - bar
||  - double bar
||o - repeat start
o|| - repeat end
*|  - double bar (ending)
 :  - bar (freetime)
 $  - Segno
 &  - Coda
Tempo markers -  = BPM(8/16=s8/s16), where s8 = swing 8ths, s16 = swing 16ths
Добавлено: 25.04.2016
Другие материалы по этой песне:

Страница создана 16.06.2012
http://primanota.ru/wes-montgomery/full-house-chords.htm
Привет, Гость.
Предлагаем пройти революционный курс по гитаре.
Подарок от PrimaNota.Ru, забирай!