PrimaNota.ru - самый крупный в мире бесплатный архив песенных текстов, аккордов, табулатур и нот


Werner Thomas - The Chicken Dance - таба, видео

Регистрация Запомнить меня
Войти через:  Facebook Google Twitter Vk Yandex Mail.ru

Werner Thomas - The Chicken Dance - таба, видео

Печатать
Просмотров: 93
Уроки эстрадного вокала в Санкт-Петербурге
Авторы: Louis Julien van Rijmenant
Авторы музыки: Werner Thomas
Авторы текста: Paul Parnes
-------------------------------------------------------------------------------
                             CHICKEN DANCE - WERNER THOMAS
-------------------------------------------------------------------------------
Tabbed by: Vitaly Krivenko
Youtube: https://www.youtube.com/watch?v=QCaYi6cFixE

Tuning: eBGDAE

e|---------------------------------------------------------------------------|
B|---------------------------------------1-1-0--0----------------------------|
G|-0-0-2-2-----0--0-0-2-2-----0--0-0-2-2-----------2--0---------0-0----------|
D|---------2-2------------2-2----------------------------3--3-3-----0-0-3--3-|
A|---------------------------------------------------------------------------|
E|---------------------------------------------------------------------------|

e|---------------------------------------------------------------------------|
B|----------------------0-0--------------------------------------------------|
G|---0-0------------0-0-----2--2--0--------0-0-2-2-----0--0-0-2-2-----0--0-0-|
D|-3-----0-0-3--3-3------------------3--2----------2-2------------2-2--------|
A|---------------------------------------------------------------------------|
E|---------------------------------------------------------------------------|

e|---------------------------------------------------------------------------|
B|-----1-1-0--0-------------------------------------------------0-0-1--------|
G|-2-2-----------2--0---------0-0------------0-0--------0-0-2-2--------2--0--|
D|---------------------3--3-3-----0-0-3--3-3-----0-0-3-----------------------|
A|---------------------------------------------------------------------------|
E|---------------------------------------------------------------------------|

e|---------------------------------------------------------------------------|
B|---------------------------------------------------------------------------|
G|---------------------------------------------------------------------------|
D|-2-------------------------------------------------------------------------|
A|----3----------------------------------------------------------------------|
E|---------------------------------------------------------------------------|

Bridge: (the part to do the airplane to)

e|--------------------0~-----------------------------------------------------|
B|---------------------------3--3----1-------------------------3~-----1------|
G|-0---------------0------------------------0---------------0----------------|
D|----4--3--2~---------------------------------4--3--2~----------------------|
A|---------------------------------------------------------------------------|
E|---------------------------------------------------------------------------|

e|---------------------------------------------------------------------------|
B|-0-----------------------------3~-----1--1----0------3--3--1--1----0-------|
G|------------2--0------------0----------------------------------------------|
D|------------------4--3~----------------------------------------------------|
A|---------------------------------------------------------------------------|
E|---------------------------------------------------------------------------|

e|---------------------------------------------------------------------------|
B|-0--1--3---1----------------------------------------------------------------|
G|--------------2--0---------------------------------------------------------|
D|--------------------2------------------------------------------------------|
A|-----------------------3---------------------------------------------------|
E|---------------------------------------------------------------------------|

And then repeat :-)


************************************

| ~   vibrato

************************************
Добавлено: 18.05.2016
Другие материалы по этой песне:
  • Аккорды и текст

Страница создана 18.05.2016
http://primanota.ru/werner-thomas/chicken-dance-chords.htm
Привет, Гость.
Предлагаем пройти революционный курс по гитаре.
Подарок от PrimaNota.Ru, забирай!