PrimaNota.ru - самый крупный в мире бесплатный архив песенных текстов, аккордов, табулатур и нот


Were No Heroes - Empty Beat - таба, видео

Регистрация Запомнить меня
Войти через:  Facebook Google Twitter Vk Yandex Mail.ru

Were No Heroes - Empty Beat - таба, видео

Печатать
Просмотров: 74
-----------------------------------------------------------------------------
                             Empty Beat - We're No Heroes
-----------------------------------------------------------------------------
http://www.werenoheroes.com/

Intro

e|------------------------|
B|------------------------|
G|-2--2--2--2--2----------|
D|-4--4--4--4--4----------|
A|------------------------|
E|------------------------| x8    


e|------------------------|
B|------------------------|
G|--4-4-4-4-4-2-----------|
D|------------------------|
A|------------------------|
E|------------------------|

e|------------------------|
B|------------------------|
G|-2--2--2--2--2----------|
D|-4--4--4--4--4----------|
A|------------------------|
E|------------------------| x3

e|------------------------|
B|------------------------|
G|--4-4-4-4-2-2-2-2-------|
D|------------------------|
A|------------------------|
E|------------------------|

e|------------------------------------------------------------------|
B|------------------------------------------------------------------|
G|------------------------------------------------------2-----------|
D|---------------------------2-2--2-2-2----------4------------------|
A|-2-2--2-2-2--4-4--4-4-4----------------2-2--2-----2-------2-------|
E|------------------------------------------------------------------|

e|------------------------------------------------------------------|
B|------------------------------------------------------------------|
G|-------------------------------------------2-2--------------------|
D|---------------------------2-2-0-0-4-4-0-0-----4-4-2-2-0-0--------|
A|-2-2--2-2-2--4-4--4-4-4-------------------------------------------|
E|------------------------------------------------------------------|

Verse 1- No Guitar

Pre-Chorus

e|------------------------------------------------------------------|
B|------------------------------------------------------------------|
G|------------------------------------------------------2-----------|
D|---------------------------2-2--2-2-2----------4------------------|
A|-2-2--2-2-2--4-4--4-4-4----------------2-2--2-----2-------2-------|
E|------------------------------------------------------------------|

e|------------------------------------------------------------------|
B|------------------------------------------------------------------|
G|-------------------------------------------2-2-2-2-4-4-4-4--------|
D|---------------------------2-2-0-0-4-4-0-0------------------------|
A|-2-2--2-2-2--4-4--4-4-4-------------------------------------------|
E|------------------------------------------------------------------|

e|------------------------------------------------------------------|
B|------------------------------------------------------------------|
G|----2-4----2-4----2-4----2-4----2-4-------------------------------|
D|--4------4------4------4------4------4-4-4-4-4-2-0----------------|
A|-----------------------------------------------------4------------|
E|------------------------------------------------------------------| 

e|------------------------------------------------------------------|
B|------------------------------------------------------------------|
G|------------2----2-4----2-4----2-4----2-4----2-4------------------|
D|--4-4-4-2-4----4------4------4------4------4----------------------|
A|------------------------------------------------------------------|
E|------------------------------------------------------------------|

e|------------------------------------------------------------------|
B|------------------------------------------------------------------|
G|---------------------2-----4-4-4-------------2-----2-2-2----------|
D|--4-(x16)------0-2-4---4-4------------0-2-4----4-4----------------|
A|-----------2-4-------------------2-4------------------------------|
E|------------------------------------------------------------------|

Chorus- Not 100% sure about this but it sounds okay…

e|------------------------------------------------------------------|
B|------------------------------------------------------------------|
G|-----------------------------2------------------------------------|
D|-2-2--2-2-2--2-2-2--2-2-2--4------2-2--2-2-2--2-2-2--2-2-2--0-----|
A|--------------------------------------------------------------4---|
E|------------------------------------------------------------------| (x2)

Verse 2- No Guitar

Pre-Chorus

e|------------------------------------------------------------------|
B|------------------------------------------------------------------|
G|------------------------------------------------------2-----------|
D|---------------------------2-2--2-2-2----------4------------------|
A|-2-2--2-2-2--4-4--4-4-4----------------2-2--2-----2-------2-------|
E|------------------------------------------------------------------|

e|------------------------------------------------------------------|
B|------------------------------------------------------------------|
G|-------------------------------------------2-2-2-2-4-4-4----------|
D|---------------------------2-2-0-0-4-4-0-0------------------------|
A|-2-2--2-2-2--4-4--4-4-4-------------------------------------------|
E|------------------------------------------------------------------|

e|------------------------------------------------------------------|
B|------------------------------------------------------------------|
G|----2-4----2-4----2-4----2-4----2-4-------------------------------|
D|--4------4------4------4------4------4-4-4-4-4-2-0----------------|
A|-----------------------------------------------------4------------|
E|------------------------------------------------------------------| 

e|------------------------------------------------------------------|
B|------------------------------------------------------------------|
G|------------2----2-4----2-4----2-4----2-4----2-4------------------|
D|--4-4-4-2-4----4------4------4------4------4-------4-(x16)--------|
A|------------------------------------------------------------------|
E|------------------------------------------------------------------|

Chorus

e|------------------------------------------------------------------|
B|------------------------------------------------------------------|
G|-----------------------------2------------------------------------|
D|-2-2--2-2-2--2-2-2--2-2-2--4------2-2--2-2-2--2-2-2--2-2-2-0------|
A|-------------------------------------------------------------4----|
E|------------------------------------------------------------------| (x4)

Bridge

e|------------------------------------------------------------------|
B|------------------------------------------------------------------|
G|--------------2-----4-4-4-------------2---------------------------|
D|--------0-2-4---4-4------------0-2-4----4-4-2-0-------------------|
A|----2-4-------------------2-4-------------------4-----------------|
E|------------------------------------------------------------------|

e|------------------------------------------------------------------|
B|------------------------------------------------------------------|
G|--------------2-----4-4-4-------------2-----2-2-2-----------------|
D|--------0-2-4---4-4------------0-2-4----4-4-----------------------|
A|----2-4-------------------2-4-------------------------------------|
E|------------------------------------------------------------------|

This part is mostly keyboard, but it sounds great on guitar!

e|------------------------------------------------------------------|
B|------------------------------------------------------------------|
G|------------2------------------------2-----4-4-4------------------|
D|------0-2-4---4-4-2-0---------0-2-4----4-4------------------------|
A|--2-4-----------------4--2-4--------------------------------------|
E|------------------------------------------------------------------| (x2)

Chorus

e|------------------------------------------------------------------|
B|------------------------------------------------------------------|
G|-----------------------------2------------------------------------|
D|-2-2--2-2-2--2-2-2--2-2-2--4------2-2--2-2-2--2-2-2--2-2-2-0------|
A|-------------------------------------------------------------4----|
E|------------------------------------------------------------------| (x3)

Ends with

e|---|
B|---|
G|---|
D|-2-|
A|---|
E|---|
Добавлено: 30.04.2012
Другие материалы по этой песне:
  • Аккорды и текст

Страница создана 30.04.2012
http://primanota.ru/were-no-heroes/empty-beat-chords.htm
Привет, Гость.
Предлагаем пройти революционный курс по гитаре.
Подарок от PrimaNota.Ru, забирай!