PrimaNota.ru - самый крупный в мире бесплатный архив песенных текстов, аккордов, табулатур и нот


Weird Korea - Cheep Thrills - таба, видео

Регистрация Запомнить меня
Войти через:  Facebook Google Twitter Vk Yandex Mail.ru

Weird Korea - Cheep Thrills - таба, видео

Печатать
Просмотров: 27
-------------------------------------------------------------------------------
                         Cheep Thrills - Weird Korea
-------------------------------------------------------------------------------

Tuning: Standard

Intro:

e|--3------------------------------------------------------------------------|
B|--3------------------------------------------------------------------------|
G|--4------------------------------------------------------------------------|
D|--5-slide up and make a ton of noise---------------------------------------|
A|--5------------------------------------------------------------------------|
E|--3------------------------------------------------------------------------|

e|--3------------------------------------------------------------------------|
B|--3----------------3-------------------------------------------------------|
G|--4--5-3h5-3h5-3h5---5-3-5-3-----------------------------------------------|
D|--5--------------------------5---------------------------------------------|
A|--5------------------------------------------------------------------------|
E|--3------------------------------------------------------------------------|

e|--3------------------------------------------------------------------------|
B|--3----------------3b------------------------------------------------------|
G|--4--5-3h5-3h5-3h5----5-3--------------------------------------------------|
D|--5------------------------------------------------------------------------|
A|--5------------------------------------------------------------------------|
E|--3------------------------------------------------------------------------|

e|--3------------------------------------------------------------------------|
B|--3----------------3-6-3---------------------------------------------------|
G|--4--5-3h5-3h5-3h5---------------------------------------------------------|
D|--5------------------------------------------------------------------------|
A|--5------------------------------------------------------------------------|
E|--3------------------------------------------------------------------------|

e|--3-3--3-3--33333--3-3--3-3--55555-----------------------------------------|
B|--5-5--5-5--33333--5-5--5-5--77777-----------------------------------------|
G|--5-5--5-5--44444--5-5--5-5--77777-----------------------------------------|
D|--5-5--5-5--55555--5-5--5-5--77777-----------------------------------------|
A|--3-3--3-3--55555--3-3--3-3--55555-----------------------------------------|
E|--3-3--3-3--33333--3-3--3-3--55555-----------------------------------------|

e|--3------------------------------------------------------------------------|
B|--3----------------3-------------------------------------------------------|
G|--4--5-3h5-3h5-3h5---5-3-5-3-----------------------------------------------|
D|--5--------------------------5---------------------------------------------|
A|--5------------------------------------------------------------------------|
E|--3------------------------------------------------------------------------|

e|--3------------------------------------------------------------------------|
B|--3----------------3b------------------------------------------------------|
G|--4--5-3h5-3h5-3h5----5-3--------------------------------------------------|
D|--5------------------------------------------------------------------------|
A|--5------------------------------------------------------------------------|
E|--3------------------------------------------------------------------------|

e|--3------------------------------------------------------------------------|
B|--3----------------3-6-3-8-8-8-8-6h8-8-8-8-6-------------------------------|
G|--4--5-3h5-3h5-3h5---------------------------------------------------------|
D|--5------------------------------------------------------------------------|
A|--5------------------------------------------------------------------------|
E|--3------------------------------------------------------------------------|

e|--3-3--3-3--33333--3-3--3-3--55555-----------------------------------------|
B|--5-5--5-5--33333--5-5--5-5--77777-----------------------------------------|
G|--5-5--5-5--44444--5-5--5-5--77777-----------------------------------------|
D|--5-5--5-5--55555--5-5--5-5--77777-----------------------------------------|
A|--3-3--3-3--55555--3-3--3-3--55555-----------------------------------------|
E|--3-3--3-3--33333--3-3--3-3--55555-----------------------------------------|

Verse:

e|--3--1--3------------------------------------------------------------------|
B|--3--3--5------------------------------------------------------------------|
G|--4--3--5------------------------------------------------------------------|
D|--5--3--5------------------------------------------------------------------|
A|--5--1--3------------------------------------------------------------------|
E|--3--1--3------------------------------------------------------------------|

At 1:29 (Chorus?/Bridge?):

e|--3-3--3-3--33333----------------------------------------------------------|
B|--5-5--4-4--33333----------------------------------------------------------|
G|--5-5--5-5--44444----------------------------------------------------------|
D|--5-5--5-5--55555----------------------------------------------------------|
A|--3-3--3-3--55555----------------------------------------------------------|
E|--3-3--3-3--33333----------------------------------------------------------|

Solo:

e|--3-3---6-6---8--8----11-11------------------------------------------------|
B|--3-3---6-6---8--8----11-11--------------Basic Chord Progression-----------|
G|--4-4---7-7---9--9----12-12-------------------more fun to solo on your-----|
D|--5-5---8-8---10-10---13-13-----------------------own anyway---------------|
A|--5-5---8-8---10-10---13-13------------------------------------------------|
E|--3-3---6-6---8--8----11-11------------------------------------------------|

Outro:

e|--3------------------------------------------------------------------------|
B|--3----------------3-------------------------------------------------------|
G|--4--5-3h5-3h5-3h5---5-3-5-3-----------------------------------------------|
D|--5--------------------------5---------------------------------------------|
A|--5------------------------------------------------------------------------|
E|--3------------------------------------------------------------------------|

e|--3------------------------------------------------------------------------|
B|--3----------------3b------------------------------------------------------|
G|--4--5-3h5-3h5-3h5----5-3--------------------------------------------------|
D|--5------------------------------------------------------------------------|
A|--5------------------------------------------------------------------------|
E|--3------------------------------------------------------------------------|

e|--3------------------------------------------------------------------------|
B|--3----------------3-6-3---------------------------------------------------|
G|--4--5-3h5-3h5-3h5---------------------------------------------------------|
D|--5------------------------------------------------------------------------|
A|--5------------------------------------------------------------------------|
E|--3------------------------------------------------------------------------|

e|--3------------------------------------------------------------------------|
B|--3------------------------------------------------------------------------|
G|--4------------------------------------------------------------------------|
D|--5-slide up and make a ton of noise---------------------------------------|
A|--5------------------------------------------------------------------------|
E|--3------------------------------------------------------------------------|
Добавлено: 14.08.2015
Другие материалы по этой песне:
  • Аккорды и текст

Страница создана 14.08.2015
http://primanota.ru/weird-korea/cheep-thrills-chords.htm
Привет, Гость.
Предлагаем пройти революционный курс по гитаре.
Подарок от PrimaNota.Ru, забирай!