PrimaNota.ru - самый крупный в мире бесплатный архив песенных текстов, аккордов, табулатур и нот


Weezer - You Wont Get With Me Tonight - таба, видео

Регистрация Запомнить меня
Войти через:  Facebook Google Twitter Vk Yandex Mail.ru

Weezer - You Wont Get With Me Tonight - таба, видео

Печатать
Просмотров: 84
-------------------------------------------------------------------------------
                             You Won't Get With Me Tonight - Weezer
-------------------------------------------------------------------------------

Tabbed by: cjpm105

Tuning: Guitar 1 - Standard, half step down.
        Guitar 2 - Standard, half step down.

Key
/  slide up
\  slide down
h  hammer-on
p  pull-off
~  sustain

Intro/ Verse
eb|------------------------------------------------------------------------------|
Bb|------------------------------------------------------------------------------|
Gb|------------------------------------------------------------------------------|
Db|--5--------3-5--------7----7----5----5----3--3--8----8----8----8----8--8---8--|
Ab|--5--------3-5--------5----5----5----5----3--3--6----6----8----8----8--8---8--|
Eb|--3--------1-3--------5----5----3----3----1--1--6----6----6----6----6--6---6--|

eb|-------------------------------------------------------------------|
Bb|-------------------------------------------------------------------|
Gb|-------------------------------------------------------------------|
Db|--8----8----8----8----8--8---8--3----3----3--5----5----5--5--5--5--|
Ab|--6----6----8----8----8--8---8--3----3----3--5----5----5--5--5--5--|
Eb|--6----6----6----6----6--6---6--1----1----1--3----3----3--3--3--3--|

eb|-------------------------------------------------------------------|
Bb|-------------------------------------------------------------------|
Gb|-------------------------------------------------------------------|
Db|--8----8----8----8----8--8---8--3----3----3--5----5----5--5--5--5--|
Ab|--6----6----8----8----8--8---8--3----3----3--5----5----5--5--5--5--|
Eb|--6----6----6----6----6--6---6--1----1----1--3----3----3--3--3--3--|

eb|-------------------------------------------------------------------|
Bb|-------------------------------------------------------------------|
Gb|-------------------------------------------------------------------|
Db|--8----8----8----8----8--8---8--3----3----3--5----5----5--5--5--5--|
Ab|--6----6----8----8----8--8---8--3----3----3--5----5----5--5--5--5--|
Eb|--6----6----6----6----6--6---6--1----1----1--3----3----3--3--3--3--|

eb|-------------------------------------------------------------------------------------------|
Bb|-------------------------------------------------------------------------------------------|
Gb|-------------------------------------------------------------------------------------------|
Db|--7----7----5----5----3--3--8----8----8----8----8--8---8--8---10----12----12----12-12--12--|
Ab|--5----5----5----5----3--3--6----6----8----8----8--8---8--6----8----10----10----10-10--10--|
Eb|--5----5----3----3----1--1--6----6----6----6----6--6---6--6----8----10----10----10-10--10--|

eb|---------------------------------|
Bb|---------------------------------|
Gb|---------------------------------|
Db|--12---10----8----8----8--8---8--|
Ab|--10----8----8----8----8--8---8--|
Eb|--10----8----6----6----6--6---6--|

Chorus
eb|--1-1-1-1-1-1-1-1-1-1-1-1-1-1-1-1-1-1-1-1-1-1-1-1-1-1-1-1-1-1-1-1--|
Bb|--1-1-1-1-1-1-1-1-1-1-1-1-1-1-1-1-1-1-1-1-1-1-1-1-1-1-1-1-1-1-1-1--|
Gb|--2-2-2-2-2-2-2-2-2-2-2-2-2-2-2-2-2-2-2-2-2-2-2-2-2-2-2-2-2-2-2-2--|
Db|--3-3-3-3-3-3-3-3-3-3-3-3-3-3-3-3-3-3-3-3-3-3-3-3-3-3-3-3-3-3-3-3--|
Ab|--3-3-3-3-3-3-3-3-3-3-3-3-3-3-3-3-3-3-3-3-3-3-3-3-3-3-3-3-3-3-3-3--|
Eb|--1-1-1-1-1-1-1-1-1-1-1-1-1-1-1-1-1-1-1-1-1-1-1-1-1-1-1-1-1-1-1-1--|

eb|--1-1-1-1-1-1-1-1-1-1-1-1-1-1-1-1-1-1-1-1-1-1-1-1-1-1-1-1-1-1-1-1--|
Bb|--1-1-1-1-1-1-1-1-1-1-1-1-1-1-1-1-1-1-1-1-1-1-1-1-1-1-1-1-1-1-1-1--|
Gb|--2-2-2-2-2-2-2-2-2-2-2-2-2-2-2-2-2-2-2-2-2-2-2-2-2-2-2-2-2-2-2-2--|
Db|--3-3-3-3-3-3-3-3-3-3-3-3-3-3-3-3-3-3-3-3-3-3-3-3-3-3-3-3-3-3-3-3--|
Ab|--3-3-3-3-3-3-3-3-3-3-3-3-3-3-3-3-3-3-3-3-3-3-3-3-3-3-3-3-3-3-3-3--|
Eb|--1-1-1-1-1-1-1-1-1-1-1-1-1-1-1-1-1-1-1-1-1-1-1-1-1-1-1-1-1-1-1-1--|

Second Verse
eb|-------------------------------------------------------------------|
Bb|-------------------------------------------------------------------|
Gb|-------------------------------------------------------------------|
Db|--8----8----8----8----8--8---8--3----3----3--5----5----5--5--5--5--|
Ab|--6----6----8----8----8--8---8--3----3----3--5----5----5--5--5--5--|
Eb|--6----6----6----6----6--6---6--1----1----1--3----3----3--3--3--3--|

eb|-------------------------------------------------------------------|
Bb|-------------------------------------------------------------------|
Gb|-------------------------------------------------------------------|
Db|--8----8----8----8----8--8---8--3----3----3--5----5----5--5--5--5--|
Ab|--6----6----8----8----8--8---8--3----3----3--5----5----5--5--5--5--|
Eb|--6----6----6----6----6--6---6--1----1----1--3----3----3--3--3--3--|

eb|-------------------------------------------------------------------------------------------|
Bb|-------------------------------------------------------------------------------------------|
Gb|-------------------------------------------------------------------------------------------|
Db|--7----7----5----5----3--3--8----8----8----8----8--8---8--8---10----12----12----12-12--12--|
Ab|--5----5----5----5----3--3--6----6----8----8----8--8---8--6----8----10----10----10-10--10--|
Eb|--5----5----3----3----1--1--6----6----6----6----6--6---6--6----8----10----10----10-10--10--|

eb|---------------------------------|
Bb|---------------------------------|
Gb|---------------------------------|
Db|--12---10----8----8----8--8---8--|
Ab|--10----8----8----8----8--8---8--|
Eb|--10----8----6----6----6--6---6--|

Second Chorus
eb|--1-1-1-1-1-1-1-1-1-1-1-1-1-1-1-1-1-1-1-1-1-1-1-1-1-1-1-1-1-1-1-1--|
Bb|--1-1-1-1-1-1-1-1-1-1-1-1-1-1-1-1-1-1-1-1-1-1-1-1-1-1-1-1-1-1-1-1--|
Gb|--2-2-2-2-2-2-2-2-2-2-2-2-2-2-2-2-2-2-2-2-2-2-2-2-2-2-2-2-2-2-2-2--|
Db|--3-3-3-3-3-3-3-3-3-3-3-3-3-3-3-3-3-3-3-3-3-3-3-3-3-3-3-3-3-3-3-3--|
Ab|--3-3-3-3-3-3-3-3-3-3-3-3-3-3-3-3-3-3-3-3-3-3-3-3-3-3-3-3-3-3-3-3--|
Eb|--1-1-1-1-1-1-1-1-1-1-1-1-1-1-1-1-1-1-1-1-1-1-1-1-1-1-1-1-1-1-1-1--|

eb|--1-1-1-1-1-1-1-1-1-1-1-1-1-1-1-1-1-1-1-1-1-1-1-1-1-1-1-1-1-1-1-1--|
Bb|--1-1-1-1-1-1-1-1-1-1-1-1-1-1-1-1-1-1-1-1-1-1-1-1-1-1-1-1-1-1-1-1--|
Gb|--2-2-2-2-2-2-2-2-2-2-2-2-2-2-2-2-2-2-2-2-2-2-2-2-2-2-2-2-2-2-2-2--|
Db|--3-3-3-3-3-3-3-3-3-3-3-3-3-3-3-3-3-3-3-3-3-3-3-3-3-3-3-3-3-3-3-3--|
Ab|--3-3-3-3-3-3-3-3-3-3-3-3-3-3-3-3-3-3-3-3-3-3-3-3-3-3-3-3-3-3-3-3--|
Eb|--1-1-1-1-1-1-1-1-1-1-1-1-1-1-1-1-1-1-1-1-1-1-1-1-1-1-1-1-1-1-1-1--|

eb|-----------------------------------------------------------------------|
Bb|-----------------------------------------------------------------------|
Gb|-----------------------------------------------------------------------|
Db|--5----5--5---5----7----7--7---7----5----5--5---5----3----3----3----3--|
Ab|--5----5--5---5----5----5--5---5----5----5--5---5----3----3----3----3--|
Eb|--3----3--3---3----5----5--5---5----3----3--3---3----1----1----1----1--|

eb|--------------------------------------------------------|
Bb|--------------------------------------------------------|
Gb|--------------------------------------------------------|
Db|--8----8----8----8----8--8--3----3----8----8----8----8--|
Ab|--8----8----6----6----6--6--3----3----8----8----8----8--|
Eb|--6----6----6----6----6--6--1----1----6----6----6----6--|
 
Solo - Guitar 2 plays the Second Verse during the solo
eb|--14-14-14--12----12----------------9----------------------------------(16)--|
Bb|---------------------14----12-10-12---12-10-12-12-12-10----10----------------|
Gb|---------------------------------------------------------------11------------|
Db|-----------------------------------------------------------------------------|
Ab|-----------------------------------------------------------------------------|
Eb|-----------------------------------------------------------------------------|

eb|--14-14-14--12----12----------------9--------------------------14~--|
Bb|---------------------14----12-10-12---12-10-12-12-12-10----10-------|
Gb|--------------------------------------------------------------------|
Db|--------------------------------------------------------------------|
Ab|--------------------------------------------------------------------|
Eb|--------------------------------------------------------------------|

eb|--9-9-9-12-12-12-14-14-17-17-17-19-19-19-21-21-24-24-24-22-22-22--21----19-17--|
Bb|--x-x-x--x--x--x--x--x--x--x--x--x--x--x--x--x--x--x--x--x--x--x---x-----x--x--|
Gb|--6-6-6--9--9--9-11-11-14-14-14-16-16-16-18-18-21-21-21-19-19-19--18----16-14--|
Db|-------------------------------------------------------------------------------|
Ab|-------------------------------------------------------------------------------|
Eb|-------------------------------------------------------------------------------|

eb|--21-21-21-22-22-22-24-24-24-24-24-24-24-24-24-24-24-24-22-22-22-21-21-21--|
Bb|---x--x--x--x--x--x--x--x--x--x--x--x--x--x--x--x--x--x--x--x--x--x--x--x--|
Gb|--18-18-18-19-19-19-21-21-21-21-21-21-21-21-21-21-21-21-19-19-19-18-18-18--|
Db|---------------------------------------------------------------------------|
Ab|---------------------------------------------------------------------------|
Eb|---------------------------------------------------------------------------|

eb|--17-17-17-17-17-17-17-17-17-17-17-17--|
Bb|---x--x--x--x--x--x--x--x--x--x--x--x--|
Gb|--14-14-14-14-14-14-14-14-14-14-14-14--|
Db|---------------------------------------|
Ab|---------------------------------------|
Eb|---------------------------------------|

Third Chorus
eb|--1-1-1-1-1-1-1-1-1-1-1-1-1-1-1-1-1-1-1-1-1-1-1-1-1-1-1-1-1-1-1-1--|
Bb|--1-1-1-1-1-1-1-1-1-1-1-1-1-1-1-1-1-1-1-1-1-1-1-1-1-1-1-1-1-1-1-1--|
Gb|--2-2-2-2-2-2-2-2-2-2-2-2-2-2-2-2-2-2-2-2-2-2-2-2-2-2-2-2-2-2-2-2--|
Db|--3-3-3-3-3-3-3-3-3-3-3-3-3-3-3-3-3-3-3-3-3-3-3-3-3-3-3-3-3-3-3-3--|
Ab|--3-3-3-3-3-3-3-3-3-3-3-3-3-3-3-3-3-3-3-3-3-3-3-3-3-3-3-3-3-3-3-3--|
Eb|--1-1-1-1-1-1-1-1-1-1-1-1-1-1-1-1-1-1-1-1-1-1-1-1-1-1-1-1-1-1-1-1--|

eb|--1-1-1-1-1-1-1-1-1-1-1-1-1-1-1-1-1-1-1-1-1-1-1-1-1-1-1-1-1-1-1-1--|
Bb|--1-1-1-1-1-1-1-1-1-1-1-1-1-1-1-1-1-1-1-1-1-1-1-1-1-1-1-1-1-1-1-1--|
Gb|--2-2-2-2-2-2-2-2-2-2-2-2-2-2-2-2-2-2-2-2-2-2-2-2-2-2-2-2-2-2-2-2--|
Db|--3-3-3-3-3-3-3-3-3-3-3-3-3-3-3-3-3-3-3-3-3-3-3-3-3-3-3-3-3-3-3-3--|
Ab|--3-3-3-3-3-3-3-3-3-3-3-3-3-3-3-3-3-3-3-3-3-3-3-3-3-3-3-3-3-3-3-3--|
Eb|--1-1-1-1-1-1-1-1-1-1-1-1-1-1-1-1-1-1-1-1-1-1-1-1-1-1-1-1-1-1-1-1--|

eb|--------------------------------------------------------------------|
Bb|--------------------------------------------------------------------|
Gb|--------------------------------------------------------------------|
Db|--5----5--5---5----7----7--7---7----5----5--5---5----7----7--7---7--|
Ab|--5----5--5---5----5----5--5---5----5----5--5---5----5----5--5---5--|
Eb|--3----3--3---3----5----5--5---5----3----3--3---3----5----5--5---5--|
 
eb|-----------------------------------------------------------------------|
Bb|-----------------------------------------------------------------------|
Gb|-----------------------------------------------------------------------|
Db|--5----5--5---5----7----7--7---7----5----5--5---5----3----3----3----3--|
Ab|--5----5--5---5----5----5--5---5----5----5--5---5----3----3----3----3--|
Eb|--3----3--3---3----5----5--5---5----3----3--3---3----1----1----1----1--|

Final Verse - Guitar 2 plays some octave parts similar to the solo in the background, but it's a
little hard to make out.
eb|----------------------------------------------------------------------------------------------|
Bb|----------------------------------------------------------------------------------------------|
Gb|----------------------------------------------------------------------------------------------|
Db|--8----8----8----8----8--8---8----8----8----8----8----8--8---8----3----3----8----8----8--8---8|
Ab|--8----8----6----6----6--6---6----8----8----6----6----6--6---6----3----3----8----8----8--8---8|
Eb|--6----6----6----6----6--6---6----6----6----6----6----6--6---6----1----1----6----6----6--6---6|

eb|-------------------------------------------------------------------|
Bb|-------------------------------------------------------------------|
Gb|-------------------------------------------------------------------|
Db|--8----8----8----8----8--8---8--3----3----3--5----5----5--5--5--5--|
Ab|--6----6----8----8----8--8---8--3----3----3--5----5----5--5--5--5--|
Eb|--6----6----6----6----6--6---6--1----1----1--3----3----3--3--3--3--|

eb|-------------------------------------------------------------------|
Bb|-------------------------------------------------------------------|
Gb|-------------------------------------------------------------------|
Db|--8----8----8----8----8--8---8--3----3----3--5----5----5--5--5--5--|
Ab|--6----6----8----8----8--8---8--3----3----3--5----5----5--5--5--5--|
Eb|--6----6----6----6----6--6---6--1----1----1--3----3----3--3--3--3--|

eb|-------------------------------------------------------------------------------------------|
Bb|-------------------------------------------------------------------------------------------|
Gb|-------------------------------------------------------------------------------------------|
Db|--7----7----5----5----3--3--8----8----8----8----8--8---8--8---10----12----12----12-12--12--|
Ab|--5----5----5----5----3--3--6----6----8----8----8--8---8--6----8----10----10----10-10--10--|
Eb|--5----5----3----3----1--1--6----6----6----6----6--6---6--6----8----10----10----10-10--10--|

eb|---------------------------------|
Bb|---------------------------------|
Gb|---------------------------------|
Db|--12---10----8----8----8--8---8--|
Ab|--10----8----8----8----8--8---8--|
Eb|--10----8----6----6----6--6---6--|
Добавлено: 01.03.2012
Другие материалы по этой песне:
  • Аккорды и текст

Страница создана 01.03.2012
http://primanota.ru/weezer/you-wont-get-with-me-tonight-chords.htm
Привет, Гость.
Предлагаем пройти революционный курс по гитаре.
Подарок от PrimaNota.Ru, забирай!