PrimaNota.ru - самый крупный в мире бесплатный архив песенных текстов, аккордов, табулатур и нот


Weezer - Only in dreams1 - бас-таба, видео

Регистрация Запомнить меня
Войти через:  Facebook Google Twitter Vk Yandex Mail.ru

Weezer - Only in dreams1 - бас-таба, видео

Печатать
Просмотров: 78


SONG: Only in Dreams~~~~~~Bass line
ARTIST: Weezer
AUTHOR: Smart Guy


Editor's Note:
PLEASE REMOVE CRAIG BLACKBURN'S TOTALLY INAPPROPRIATE TAB OF THIS SONG (http://www.fretplay.com/tabs/w/weezer/only_in_dreams-btab.shtml)  IT'S 
TOTALLY WRONG, AND THE GUY PUBLICLY INSULTS A GUY WHO GOT IT RIGHT 
(such insults have no place on your site)  IT'S A HALF-STEP DOWN  
(please edit out this comment too)


Tuning:
---------------
G = F# 
D = C#
A = G#
E = D#

Explanation of signs:
---------------
h: hammer-on
p: pull-off
/: slide
*: repeat


    Verse: (Repeat until chorus)
G---------------------------------------
D--------0h2-2-2-2-2p0---------0-0------
A--2-2-2---------------0-0-0-0-----3-3-*
E---------------------------------------

  
    Chorus:
G---------------------------------
D---------------------------------
A-2-2-0-----------3-3-2-0-0-0-0-0-
E-------3-3-3-3-3-----------------

G---------------------------------
D---------------------------------
A-2-2-0-----------3-3-2-0-0-0-0-0-
E-------3-3-3-3-3-----------------

G---------------------------------
D---------------------------------
A-------1-1-1-1-1-------3-3-3-3-3-
E-1-1-1-----------3-3-3-----------

G--------------------------
D--------------------------
A--2-2-0-----------3-3-4-5-
E--------3-3-3-3-3---------

    
    Alternate Chorus (later in song)

G----------------------------------------
D----------------------------------------
A--222222/7777777777-00000000-5555-3333-*
E----------------------------------------


    End on

G----------------------------------------
D--------0h2-2-2-2-2p0---------0-0-------
A--2-2-2---------------0-0-0-0-----3-3---
E--------------------------------------3-

Добавлено: 20.01.2014
Другие материалы по этой песне:
  • Аккорды и текст

Страница создана 20.01.2014
http://primanota.ru/weezer/only-in-dreams1-chords.htm
Привет, Гость.
Предлагаем пройти революционный курс по гитаре.
Подарок от PrimaNota.Ru, забирай!