PrimaNota.ru - самый крупный в мире бесплатный архив песенных текстов, аккордов, табулатур и нот


Weezer - Oh Lisa - таба, видео

Регистрация Запомнить меня
Войти через:  Facebook Google Twitter Vk Yandex Mail.ru

Weezer - Oh Lisa - таба, видео

Печатать
Просмотров: 130
Artist: Weezer
Song: Oh Lisa
Album: Green Album B-Side

Chords:
  A# A#/A5 C5 C/B5 D/C#5 D5 G5
E--------------------------------|
B--------------------------------|
G-----------5--5-----7----7------|
D-8----8----5--5-----7----7--5---|
A-8----8----3--2-----4----5--5---|
E-6----5---------------------3---|

Intro:
E|------------------------------|
B|------------------------------|
G|---7--7--7--6--6--6--6--6--7--|
D|------------------------------|
A|---5--5--5--4--4--4--4--4--5--|
E|------------------------------|


Verse 1:
D5      D/C#5         C5
Simple stages in my mind,
          C/B5           A#5
Now I'm running out of time
      A#/A5   A#5
I'm wanting to,
     G5
I wanna do you
D5    D/C#5          C5
Taking    stock   of  feelings  stored
                 C/B5          A#5
Running  circles  overboard
       A#/A5       A#5
I'm wanting to
       G5
I wanna do you

Chorus:
D5         C5
Oh Lisa    can you
D5         C5
Love me again?

Bridge:
A#5        A5             D5
I'll be holding on till then

Verse 2:
Only old enough to tell
What is right and what is hell
I'm wanting to
I wanna do you
And if this is our last goodbye
I would love to see you cry
I'm wanting to
I wanna do you

Chorus
Oh Lisa    can you
Love me again?

Bridge:
I'll be holding on till then
I'll be holding on till then

Solo: (Play Twice)
E|-------------------------------------------------------------------|
B|-------------------------------------------------------------------|
G|---------------------------------8--7--6----------------6-7-6--9-7-|
D|-7-7—7-7--9-11-12—--1212—12-12—--9—-8--7----8—10-10--7—-7-8-7-10-8-|
A|-------------------------------------------------------------------|
E|-------------------------------------------------------------------|

Chorus
Oh Lisa    can you
Love me again?

Bridge:
I'll be holding on till then

Verse 3:
And if this is our last goodbye
I would love to see you cry
I'm wanting to
I wanna do you
I wanna do you
I wanna do you
I wanna do you
Добавлено: 19.05.2012
Другие материалы по этой песне:
  • Аккорды и текст

Страница создана 19.05.2012
http://primanota.ru/weezer/oh-lisa-chords.htm
Привет, Гость.
Предлагаем пройти революционный курс по гитаре.
Подарок от PrimaNota.Ru, забирай!