PrimaNota.ru - самый крупный в мире бесплатный архив песенных текстов, аккордов, табулатур и нот


Weezer - Knock Down Drag Out - аккорды и текст, таба, бас-таба, видео

Регистрация Запомнить меня
Войти через:  Facebook Google Twitter Vk Yandex Mail.ru

Weezer - Knock Down Drag Out - аккорды и текст, таба, бас-таба, видео

Печатать
Просмотров: 175
Knock Down Drag Out
Weezer
Knock-down Drag-out
By 
Weezer
Green Album
Track 6
Tabbed By Mario Carranza
Leftcoastpunk@youareadork.com

Intro
G# F A# G C

e [--------------]  
B [-------5------]
G [-5-4-5--------]  
D [--------------]          
A [--------------]         
E [--------------]


Verse
C F G

Chang up (its all that I can do)
E F G E(?) A D G

Solo

e [---------------------------]
B [--5-5-5--------------------]
G [-------5-5-5-5-4-4-4-2-4-5-]
D [---------------------------]
A [---------------------------]
E [---------------------------]

That should do it
     
Добавлено: 13.08.2013
Другие материалы по этой песне:

Страница создана 01.03.2012
http://primanota.ru/weezer/knock-down-drag-out-chords.htm
Привет, Гость.
Предлагаем пройти революционный курс по гитаре.
Подарок от PrimaNota.Ru, забирай!