PrimaNota.ru - самый крупный в мире бесплатный архив песенных текстов, аккордов, табулатур и нот


Weezer - Hey Domingo - текст песни, таба, видео

Регистрация Запомнить меня
Войти через:  Facebook Google Twitter Vk Yandex Mail.ru

Weezer - Hey Domingo - текст песни, таба, видео

Печатать
Просмотров: 102
ARTIST: Weezer
SONG: Hey Domingo

Tabbed by: Leo J. (A.K.A CruelGirlfriend)
E-Mail: Cruelgirlfriend3@gmail.com

This is my second tab, and it's a song my one of my favorites: Weezer. One of their most
underrated songs by far.
Hope this tab helps you out.

Chords:

A     - x02220
Amaj7 - x02120
F#m   - 244222
E     - 022100
D     - xx0232

Legend:

/ - Slide up to
\ - Slide down to
b - Bend(To)
h - Hammer on
p - Pull off
x - String mute
~ - Vibrato

(Under fretboard)

t - Trill(Quickly hammer-on and pull-off of the note specified)

	-Intro-

(Guitar 1)

  A
e|----x-x-----x-------x-x-----x-------x-x-----x-------x-x-----x---|
B|----x-x-----x-------x-x-----x-------x-x-----x-------x-x-----x---|
G|----x-x-----x-------x-x-----x-------x-x-----x-------x-x-----x---|
D|----x-x-----x-------x-x-----x-------x-x-----x-------x-x-----x---|
A|----x-x-----x-------x-x-----x-------x-x-----x-------x-x-----x---|
E|5---x-x-----x-------x-x-----x---5---x-x-----x-------x-x-----x---| X2

(Guitar 1)

  A
e|--------5-5-5-5-5-5-5-5-5---------------5-5-5-5-5-5-5-5-5-------|
B|--------7-5-7-5-7-5-5-5-5---------------7-5-7-5-7-5-5-5-5-------|
G|--------------------6-7-6---------------------------6-7-6-------|
D|----------------------------------------------------------------|
A|----------------------------------------------------------------|
E|5-------------------------------5-------------------------------| X2

(Guitar 2)

  A
e|----------------------------------------------------------------|
B|----------------------------------------------------------------|
G|6-------------------------------6---------------------------9--/|
D|----------------------------------------------------------------|
A|----------------------------5/7---------------------------------|
E|----------------------------------------------------------------| X2

	-Verse 1-

(Guitar 1 & 2)

  A               Amaj7           F#m             E
e|----------------------------------------------------------------|
B|----------------------------------------------------------------|
G|----------------------------------------------------------------|
D|----7-------7-------6-------6-------4-------4-------2-------2---|
A|----7-------7-------7-------7-------4-------4-------2-------2---|
E|----5-------5-------4-------4-------2-------2-------0-------0---|

  D               F#m             E
e|----------------------------------------------------------------|
B|----------------------------------------------------------------|
G|----7-------7-------6-------6-------4-------4-------------------|
D|----7-------7-------7-------7-------4-------4-------2-------2---|
A|----5-------5-------4-------4-------2-------2-------2-------2---|
E|----------------------------------------------------0-------0---|

  A               Amaj7           F#m             E
e|----------------------------------------------------------------|
B|----------------------------------------------------------------|
G|----------------------------------------------------------------|
D|----7-------7-------6-------6-------4-------4-------2-------2---|
A|----7-------7-------7-------7-------4-------4-------2-------2---|
E|----5-------5-------4-------4-------2-------2-------0-------0---|

  D               F#m             E
e|----------------------------------------------------------------|
B|----------------------------------------------------------------|
G|----7-------7-------6-------6-------4-------4-------------------|
D|----7-------7-------7-------7-------4-------4-------2-------2---|
A|----5-------5-------4-------4-------2-------2-------2-------2---|
E|----------------------------------------------------0-------0---|

	(Repeat Intro)

	-Verse 2-

(Guitar 1 & 2)

  A               Amaj7           F#m             E
e|----------------------------------------------------------------|
B|----------------------------------------------------------------|
G|----------------------------------------------------------------|
D|----7-------7-------6-------6-------4-------4-------2-------2---|
A|----7-------7-------7-------7-------4-------4-------2-------2---|
E|----5-------5-------4-------4-------2-------2-------0-------0---|

  D               F#m             E
e|----------------------------------------------------------------|
B|----------------------------------------------------------------|
G|----7-------7-------6-------6-------4-------4-------------------|
D|----7-------7-------7-------7-------4-------4-------2-------2---|
A|----5-------5-------4-------4-------2-------2-------2-------2---|
E|----------------------------------------------------0-------0---|

  A               Amaj7           F#m             E
e|----------------------------------------------------------------|
B|----------------------------------------------------------------|
G|----------------------------------------------------------------|
D|----7-------7-------6-------6-------4-------4-------2-------2---|
A|----7-------7-------7-------7-------4-------4-------2-------2---|
E|----5-------5-------4-------4-------2-------2-------0-------0---|

  D               F#m             E
e|----------------------------------------------------------------|
B|----------------------------------------------------------------|
G|----7-------7-------6-------6-------4-------4-------------------|
D|----7-------7-------7-------7-------4-------4-------2---2---2---|
A|----5-------5-------4-------4-------2-------2-------2---2---2---|
E|----------------------------------------------------0---0---0---|

	-Pre Chorus-

(Guitar 1)

  D                               E
e|----------------------------------------------------------------|
B|----------------------------------------------------------------|
G|7---7---7---7---7---7---7---7-----------------------------------|
D|7---7---7---7---7---7---7---7---2---2---2---2---2---2---2---2---|
A|5---5---5---5---5---5---5---5---2---2---2---2---2---2---2---2---|
E|--------------------------------0---0---0---0---0---0---0---0---|

(Guitar 2, play with a light swing beat)

  D                               E
e|--------2---------------2---------------0---------------0-------|
B|----3---------------3---------------0---------------0-----------|
G|--2---------------2---------------1---------------1-------------|
D|0---------------0---------------2---------------2---------------|
A|----------------------------------------------------------------|
E|----------------------------------------------------------------|

(Guitar 1)

  D                               E
e|----------------------------------------------------------------|
B|----------------------------------------------------------------|
G|7---7---7---7---7---7---7---7-----------------------------------|
D|7---7---7---7---7---7---7---7---2---2---2---2---2-2-2-2-2-2-2-2-|
A|5---5---5---5---5---5---5---5---2---2---2---2---2-2-2-2-2-2-2-2-|
E|--------------------------------0---0---0---0---0-0-0-0-0-0-0-0-|

(Guitar 2, again with a slight swing beat)

  D                               E
e|--------2---------------2---------------------------------------|
B|----3---------------3-------------------------------------------|
G|--2---------------2---------------------------------------------|
D|0---------------0-----------------------------------------------|
A|--------------------------------7---7--/9---9--/11--11--11--11--|
E|----------------------------------------------------------------|

	-Chorus-

(Guitar 1)

  A               D               A               F#m
e|----------------------------------------------------------------|
B|----------------------------------------------------------------|
G|----------------7-7-7-7-7-7-7-7---------------------------------|
D|7---7---7-7-7-7-7-7-7-7-7-7-7-7-7---7---7-7-7-7-4-4-4-4-4-4-4-4-|
A|7---7---7-7-7-7-5-5-5-5-5-5-5-5-7---7---7-7-7-7-4-4-4-4-4-4-4-4-|
E|5---5---5-5-5-5-----------------5---5---5-5-5-5-2-2-2-2-2-2-2-2-|

(Guitar 2)

  A               D               A               F#m
e|----------------------------------------------------------------|
B|----------------------------------------------------------------|
G|----------------------------------------------------------------|
D|----------------------------------------------------------------|
A|12~-------------------------------------------------------------|
E|----------------------------------------------------------------|

(Guitar 1)

  D                               E
e|----------------------------------------------------------------|
B|----------------------------------------------------------------|
G|7---7---7-7-7-7-7-7-7-7-7-7-7-7-9-9-9-9-9-9-9-9-9-9-9-9-9-9-9-9-|
D|7---7---7-7-7-7-7-7-7-7-7-7-7-7-9-9-9-9-9-9-9-9-9-9-9-9-9-9-9-9-|
A|5---5---5-5-5-5-5-5-5-5-5-5-5-5-7-7-7-7-7-7-7-7-7-7-7-7-7-7-7-7-|
E|----------------------------------------------------------------|

(Guitar 2)

  D                               E
e|----------------------------------------------------------------|
B|----------------------------------------------------------------|
G|-----------------------------------/9--/7--/6-------------------|
D|-----------------------------------------------/9--/7--/6-------|
A|-------------------------------/7--------------------------/9---|
E|----------------------------------------------------------------|

(Guitar 1)

  D                               E
e|----------------------------------------------------------------|
B|----------------------------------------------------------------|
G|7---7---7-7-7-7-7-7-7-7-7-7-7-7-9-9-9-9-9-9-9-9-9-9-9-9-9-9-9-9-|
D|7---7---7-7-7-7-7-7-7-7-7-7-7-7-9-9-9-9-9-9-9-9-9-9-9-9-9-9-9-9-|
A|5---5---5-5-5-5-5-5-5-5-5-5-5-5-7-7-7-7-7-7-7-7-7-7-7-7-7-7-7-7-|
E|----------------------------------------------------------------|

(Guitar 2)

  D                               E
e|----------------------------------------------------------------|
B|----------------------------------------------------------------|
G|----------------------------------------------------------------|
D|----------------------------------------------------------------|
A|--------------------------------7---7--/9---9--/11--11--11--11--|
E|----------------------------------------------------------------|

	(Repeat Intro)

	-Solo-

(Guitar 2, once again with a swing beat)

  A               Amaj7           F#m             E
e|----------------------------------------------------------------|
B|--------------------7---9---9~----------7--\2-------2-0---------|
G|-----------/6---9-----------------------------------------------|
D|----------------------------------------------------------------|
A|----------------------------------------------------------------|
E|----------------------------------------------------------------|
                                                      t3
  D               F#m             E
e|----------------------------------------------------------------|
B|----------------------------------------------------------------|
G|----------------------------------------------------------------|
D|--------7---9---9b8---9-9---7---9-----7-------7---------7-----7-|
A|---/9-------------------------9---------9---9---7---7h9---7h9---|
E|----------------------------------------------------------------|
                                                        Let ring
(Guitar 1)

  A               Amaj7           F#m             E
e|----------------------------------------------------------------|
B|----------------------------------------------------------------|
G|----------------------------------------------------------------|
D|----7-------7-------6-------6-------4-------4-------2-------2---|
A|----7-------7-------7-------7-------4-------4-------2-------2---|
E|----5-------5-------4-------4-------2-------2-------0-------0---|

(Guitar 2, you know what I'm going to say)

  A               Amaj7           F#m             E
e|----------------------------------------------------------------|
B|--------------------10----10--/14-------1210--1214--101210b12-12|
G|----------9-----9h11--9h11--------------------------------------|
D|----7--/11--9---------------------------------------------------|
A|7h9-------------------------------------------------------------|
E|----------------------------------------------------------------|
                                          t14
(Guitar 1)

  D               F#m             E
e|----------------------------------------------------------------|
B|----------------------------------------------------------------|
G|----7-------7-------6-------6-------4-------4-------------------|
D|----7-------7-------7-------7-------4-------4-------2-------2---|
A|----5-------5-------4-------4-------2-------2-------2-------2---|
E|----------------------------------------------------0-------0---|

(Guitar 2)

  D               F#m             E
e|----------------------------------9-----9---------10----10------|
B|------12------12------12-------/7---7-5---7-5-7/9---9-7---9-7-9-|
G|14------13------11------9---------------------------------------|
D|----------------------------------------------------------------|
A|----------------------------------------------------------------|
E|----------------------------------------------------------------|

	(Repeat Pre Chrorus)

	(Repeat Chorus)

	(Repeat Intro)

	-Outro-

  A               Amaj7           F#m             E
e|--------5-5-5-5-5-5-5-5-5---------------5-5-5-5-5-5-5-5-5-------|
B|--------7-5-7-5-7-5-5-5-5---------------7-5-7-5-7-5-5-5-5-------|
G|--------------------6-7-6---------------------------6-7-6-------|
D|----------------------------------------------------------------|
A|----------------------------------------------------------------|
E|5-------------------------------5-------------------------------| X2

(Guitar 2)

At the last line, play this:
  A               Amaj7           F#m             E
e|----------------------------------------------------------------|
B|----------------------------------------------------------------|
G|------------------------------------------------------------4/6-|
D|----------------------------------------------------------------|
A|----------------------------------------------------------------|
E|----------------------------------------------------------------|

  A
e|5~-------|
B|---------|
G|---------|
D|---------|
A|---------|
E|---------|


I probably made a bunch of mistakes in the solo, but it was an especially hard one to 
out. Once again, e-mail me or comment here if you have any suggestions or anything.
Добавлено: 20.06.2012
Другие материалы по этой песне:
  • Аккорды и текст

Страница создана 20.06.2012
http://primanota.ru/weezer/hey-domingo-chords.htm
Привет, Гость.
Предлагаем пройти революционный курс по гитаре.
Подарок от PrimaNota.Ru, забирай!