PrimaNota.ru - самый крупный в мире бесплатный архив песенных текстов, аккордов, табулатур и нот


Weeping Tile - Westray - аккорды и текст, видео

Регистрация Запомнить меня
Войти через:  Facebook Google Twitter Vk Yandex Mail.ru

Weeping Tile - Westray - аккорды и текст, видео

Печатать
Просмотров: 64
Westray
Weeping Tile
-------------------------------------------------------------------------------
                            WESTRAY - Weeping Tile
-------------------------------------------------------------------------------
Tabbed by: Pat Malavi
pat.malavi@gmail.com

Capo 2nd fret

During verse
      Em      C       D       C       Em      C       D       C
e|---------------------------------------------------------------------------|
B|---------------------------------------------------------------------------|
G|------9-------4-------7-------5-------9-------4-------7-------5------------|
D|----9---9-------5-------7-------5-------9-------5-------7-------5----------|
A|----7-------3-------5-------3------/7-------3-------5-------3--------------|
E|---------------------------------------------------------------------------|

During chorus
      Em    C     D   D
e|----7----------------------------------------------------------------------|
B|----8-----8-----10--10-----------------------------------------------------|
G|----9-----9-----11--11-----------------------------------------------------|
D|----9-----10----12--12-----------------------------------------------------|
A|----7-----10----12--12-----------------------------------------------------|
E|----------8-----10--10-----------------------------------------------------|


Em          C               D               C 
A natural disaster comes out wasn't natural after all
Em                     C                    D              C
In a small town on the east coast, well they gathered in a firehall
Em         C       D        C
And who forgot to let the canary out?
Em          C             D            C
Will you be there when they're pulling bodies out?

Em  C  D

          Em                  C                    D                C
There are strange things done under the gun by the men who moil for coal
Em               C                           D                     C
Eastern gales of howled out tales that would make your blood run cold
Em              C                       D                 C
Lighthouse eyes watch us spies and they put a word out on me
     Em                  C                        D                           C
That night you and I got lost on the drive up the coast of the Northumberland Strait


Em  C  D D
           You'll know in a little while 
Em  C  D D
           If this was meant to be
Em  C  D D
           Are you afraid of you?
Em  C  D D


      Em                     C                   D               C
There wasn't a breath in the land of death and I hurried, horror driven
       Em                          C                   D                    C
Was it something I said, somewhere in her head? I just asked for the answer given
Em             C                 D                 C
Twenty minutes up the road, just off the great highway
  Em              C                D               C
I won't be around here for long, I did not come to stay


Em  C  D D
           You'll know in a little while 
Em  C  D D
           If this was meant to be
Em  C  D D
           Are you afraid of you?
Em  C  D D


Em                C            D                 C
And it's one year later it has yet to come clear
Em             C                       D                      C
No one's doing anything 'cause they're scared of the way that they might appear
          Em             C                  D             C
They're ignoring all the signals they could not afford to hear
Em          C         D  D   C
A private investor in public fear


        D       C   D   C   
Well my hopes exceed my expectations
   D       C   D   C
My hopes exceed my expectations
   D       C   D   C
My hopes exceed my expectations


Em  C  D D
           You'll know in a little while 
Em  C  D D
           If this was meant to be
Em  C  D D
           Are you afraid of you?
Em  C  D D
           Are you afraid of me?
Em  C  D D
           You'll know in a little while 
Em  C  D D
           That this was meant to be
Em  C  D D
           Are you afraid of you?
Em  C  D D
Добавлено: 26.07.2013
Другие материалы по этой песне:
  • Аккорды и текст

Страница создана 26.07.2013
http://primanota.ru/weeping-tile/westray-chords.htm
Привет, Гость.
Предлагаем пройти революционный курс по гитаре.
Подарок от PrimaNota.Ru, забирай!