PrimaNota.ru - самый крупный в мире бесплатный архив песенных текстов, аккордов, табулатур и нот


Ween - Transdermal Celebration - аккорды и текст, таба, видео

Регистрация Запомнить меня
Войти через:  Facebook Google Twitter Vk Yandex Mail.ru

Ween - Transdermal Celebration - аккорды и текст, таба, видео

Печатать
Просмотров: 182
Transdermal Celebration
Ween
TRANSDERMAL CELEBRATION - words and music by Ween
**from the album "Quebec"

Transdermal Celebration - by Ween


***tabbed by The Glidge  *** Thanks Glidge!


Riff 1
play 2x

E:--0--0--0----------------------------------------1---:
B:--5--3--1--1---1------1-----1----1------------1------:
G:-------------3--2-3(h)-2(p)-3(h)-2(p)-5-3-2-2--------:
D:--------------------------------------------------3--:
A:--------------------------------------------------3--:
E:--------------------------------------------------1--:

A#maj
Transdermal celebration
Fmaj
caused a slight mutation in the Rift
A#maj
it toppled down a nation
Fmaj
and left the people running for the hills
Cmin
but the mutants that I see
A#maj
shine their beauty unto me
Fmaj
I wish you could see them

A#maj
Tectonic tribulation
Fmaj
formed a crust of green beyond the reef
A#maj
waves fell in formation
Fmaj
caused the plants to bend with spi-ked leaves
Cmin
I'm growing with the land
A#maj Fmaj
time has taken my hands and let me touch them

Riff 2
E:-------------------------:
B:-------------------------:
G:--10-9--7--5--3--2---:
D:-------------------------:
A:--8--7--5--3--1--0----:
E:-------------------------:

These are the notes but they are each strummed 3x each.
Listen to the album for the correct groove.

Bridge

A#maj
Hey, hey,
Fmaj
a million miles to Mark A
A#maj
lay on the lawn, he's already home
Fmaj D#maj
when the morning ray hits his face

Riff 1 (1x)

Solo

E:------------------------------------------------------------------------------------
B:---------------------------------------10-10(vibrato)-10-10-11(h)-10(p)-10-11(h)----
G:--9-9-9-10-9----9-9-9-10-9----------------------------------------------------------
D:-------------12------------12-12----------------------------------------------------
A:---------------------------------12-12----------------------------------------------
E:------------------------------------------------------------------------------------

E:--------------------------------------------------------12-12-12-13-12----
B:--10(p)-10-11(h)-10(p)-10-11(h)-10(p)-10-11(h)-10(p)-10----------------15-
G:--------------------------------------------------------------------------
D:--------------------------------------------------------------------------
A:--------------------------------------------------------------------------
E:--------------------------------------------------------------------------

E:--12-12-12-13-12-------------17-17-17(b)-15-15-16-15---------------------
B:-----------------15-15-------------------------------16-15-15-15-16-15---
G:-----------------------14-14---------------------------------------------
D:-------------------------------------------------------------------------
A:-------------------------------------------------------------------------
E:-------------------------------------------------------------------------

E:-------------15(b&r)--------:
B:---------13(b&r)------------:
G:--15-14(b&r)----------------:
D:----------------------------:
A:----------------------------:
E:----------------------------:

There's a couple of licks after this point in the solo as it trails off but
y'all can do that shit yerselves.

Note: The "b&r" notes should be picked, then bent and released twice without
picking them again. Listen to the album for the proper technique.

A#maj
Transdermal celebration
Fmaj
jets flew in formation I could see them
A#maj
dropping the crustaceans
Fmaj
leaving trails of flame in their wake
Cmin
but where is the mutation
A#maj Fmaj
who once told me it was safe, I can't find him

Riff 2

Bridge

Riff 1 (1x)

Riff 3

E:----------------------------------------------------------------------------------:
B:--5-5--5-5--5-5--5-5--5-6-5--5-5--5-5--5-5--5-5--5-6-5--8-6-5-3-1-----------------:
G:----------------------------------------------------------------------------------:
D:----------------------------------------------------------------------------------:
A:----------------------------------------------------------------------------------:
E:----------------------------------------------------------------------------------:

Note:
This part is played by Mig during the verse starting in the second verse. Listen closely
for exact timing.

***Version 2*** by Ardsnard

Capo on 1st fret

Intro
e:--0---0-0-0-0--00----------------------|
B:--2s4-2-----2--22-----------------0----|
G:--------4-2-2--22-2p1h2p1-2s4-2-1-1----|
D:------------2--22-----------------2----| X 2
A:------------0--00-----------------2----|
E:----------------------------------0----|

Haven't figured out the rest, but its in Fmaj(lots of F and Bb chords -
remember to mind the capo, and make them as E and A)

***Bass Tab***by Geoff

Transdermal Celebration
This song is flat. So the intro is closer to Bb and F than A and E. bass by Dean

h h h h q e e e s e s s s q e e e s e s s s
G---||-||--r---|-r----||----|-------------------|-------------------|-------------
D---||-||*-e---|-e---*||-4:-|-------------------|-8-8-8-8-8-8-8-8-8-|-------------
A---||-||*-s---|-s---*||-4:-|-------------------|-------------------|-------------
E---||-||--t-6-|-t-1--||----|-6-6-6-6-6-6-6-6-6-|-------------------|-------------
Intro Verse 1

q E e E s s e q E e E e e q e e e s e s s s q e e e s e s s s
G-----------------|-------------|-------------------|-------------------|---------
D-----3---3-------|---3---------|-------------------|-8-8-8-8-8-8-8-8-8-|---------
A-------------1-3-|-------------|-------------------|-------------------|---------
E---1---1---1-----|-1---1-1-1-1-|-6-6-6-6-6-6-6-6-6-|-------------------|---------

q E e E s s e q E e q s e q e e e s e s s s q e e e s e s s s
G-----------------|-------------|-------------------|-------------------|---------
D-----3-3-3---3---|---3-3-3-3---|-------------------|---------------1-3-|---------
A---------------3-|-------------|-3-3-3-3-3-3-3-3-3-|-1-1-1-1-1-1-1-----|---------
E---1-------1-----|-1---------1-|-------------------|-------------------|---------

q E e E s s e q E e q s e q e e e s e s s s q e e e s e s e
G-----------------|-------------|-------------------|-------------------|---------
D-----3-3-3---3---|---3-3-3-3---|-------------------|-8-8-8-8-8-8-8-8\--|---------
A---------------3-|-------------|-------------------|-------------------|---------
E---1-------1-----|-1---------1-|-6-6-6-6-6-6-6-6-6-|-------------------|---------
Verse 2

q E e s s s s e q E e E s s e q e e e s e s s s E s E s E s q
G-------------------|---------------|-------------------|---------------|---------
D-----3-----3-------|---3-3-3---3---|-------------------|-8-8-7-7-5-5-3-|---------
A---------------1-3-|-------------3-|-------------------|---------------|---------
E---1---1-1---1-----|-1-------1-----|-6-6-6-6-6-6-6-6-6-|---------------|---------

q E e e s s s e q E e q s e q e e e s e s s s q e e e s e s s s
G-------------------|-------------|-------------------|-------------------|-------
D-----3---3---------|---3-3-3-3---|-------------------|-------------------|-------
A---------------1-3-|-------------|-3-3-3-3-3-3-3-3-3-|-1-1-1-1-1-1-1-1-1-|-------
E---1---1---1-1-----|-1---------1-|-------------------|-------------------|-------

q E s s s q e s s s s s s s s s s s s s s s s Q Q Q Q Q Q Q Q
G-----------------|---------------------------------|----|-----|-----|-----|-----|
D-----3---3---3-3-|-3-3-3-2-2-2---------------------|-3:-|---8-|---8-|---3-|---3-|
A-------3---3-----|-------------5-5-5-3-3-3---------|-4:-|-----|-----|-----|-----|
E---1-------------|-------------------------6-6-5-5-|----|-6---|-6---|-1---|-1---|
Chorus

Q Q Q Q H q q q w w h h h h q e e e s e s s s
G-------|-----|---|-r-----|----|---|-r-|-r---|-r---|-------------------|----------
D-----8-|---8-|---|-e-----|-4:-|---|-e-|-e---|-e---|-------------------|----------
A-------|-----|---|-s-----|-4:-|---|-s-|-s---|-s---|-------------------|----------
E---6---|-6---|-1-|-t-3-1-|----|-3-|-t-|-t-6-|-t-1-|-6-6-6-6-6-6-6-6-6-|----------
Solo

q e e e s e s s s q E e s s s s e q e e s s s s s s s s
G---------------------|-----------------|-----------------------|-----------------
D---8-8-8-8-8-8-8-8-8-|---3-----3-------|---3-----------3-5-3---|-----------------
A---------------------|-------------1-3-|-----3-----1-3-------3-|-----------------
E---------------------|-1---1-1---1-----|-1-----1-1-------------|-----------------

q e e e s e s s s E s E s E s q q E e q s e q e e e s e s s s
G---------------------|---------------|-------------|-------------------|---------
D-----8-8-8-8-8-------|-8-8-7-7-5-5-3-|---3-3-3-3---|-------------------|---------
A---------------------|---------------|-------------|-6-6-6-6-6-6-6-6-6-|---------
E---6-----------6-6-6-|---------------|-1---------1-|-------------------|---------

q e e e s e s s s e s s e s s s s s s s s e
G---------------------|-------------------------10-12-12-|------------------------
D---------------------|-------------------10-12----------|------------------------
A---------------------|-------8-8-8-10-12----------------|------------------------
E---6-6-6-6-6-6-6-6-6-|-1-1-1----------------------------|------------------------

s s s s s s s s s s s s s s s s q e q s e s s s
G---12-14-12-10-------------------------------------|-----------------|-----------
D---------------12-10----------10----------10-------|---8---8-8-------|-----------
A---------------------13-12-13----13-12-13----13-12-|-----------------|-----------
E---------------------------------------------------|-6---6-----6-6-6-|-----------
Verse 3

q e e e s e s s s q E e s s s s e q E e E s s e q e e e s e s s s
G---------------------|-----------------|---------------|-------------------|-----
D---8-8-8-8-8-8-8-8-8-|---3-----3-------|---3-3-3---3---|-------------------|-----
A---------------------|-------------1-3-|-------------3-|-------------------|-----
E---------------------|-1---1-1---1-----|-1-------1-----|-6-6-6-6-6-6-6-6-6-|-----

E s E s E s q q E e s s s s e q E e q s e q e e e s e s s s
G-----------------|-----------------|-------------|-------------------|-----------
D---8-8-7-7-5-5-3-|---3---------1-3-|---3-3-3-3---|-------------------|-----------
A-----------------|---------1-3-----|-------------|-3-3-3-3-3-3-3-3-3-|-----------
E-----------------|-1---1-1---------|-1---------1-|-------------------|-----------

q e e e s e s s s e e e s s s s e s s e s s s s s s s s s s s s s s s s
G---------------------|-----------------------|---------------------------------|-
D---------------------|-------3-3-5---3---3-5-|-3-3-3-2-2-2---------------------|-
A---1-1-1-1-1-1-1-1-1-|-------------5---5-----|-------------5-5-5-3-3-3---------|-
E---------------------|-1-1-1-----------------|-------------------------6-6-5-5-|-

Q Q Q Q Q q e q e e e e Q Q Q Q H q q q w h h
G------|-----|-----|-------|-----------|-----|-----|---|-r-----|----|---|-r---|---
D---3:-|---8-|---8-|---3---|-----3---3-|---8-|---8-|---|-e-----|-4:-|---|-e---|---
A---4:-|-----|-----|-----3-|-------3---|-----|-----|---|-s-----|-4:-|---|-s---|---
E------|-6---|-6---|-1-----|-1-1-------|-6---|-6---|-1-|-t-3-1-|----|-3-|-t-6-|---
Chorus

h h
G---r---||------------------------------------------------------------------------
D---e---||------------------------------------------------------------------------
A---s---||------------------------------------------------------------------------
E---t-1-||------------------------------------------------------------------------

 

***tabbed by The Glidge
Awesome Sound - Ween Guitar tabs (www.vaxxine.com/mtbhl/ween.htm)
Добавлено: 09.10.2015
Другие материалы по этой песне:
  • Аккорды и текст

Страница создана 25.03.2012
http://primanota.ru/ween/transdermal-celebration-chords.htm
Привет, Гость.
Предлагаем пройти революционный курс по гитаре.
Подарок от PrimaNota.Ru, забирай!