PrimaNota.ru - самый крупный в мире бесплатный архив песенных текстов, аккордов, табулатур и нот


Ween - The Goin' Gets Tough From The Getgo - текст песни, бас-таба, видео

Регистрация Запомнить меня
Войти через:  Facebook Google Twitter Vk Yandex Mail.ru

Ween - The Goin' Gets Tough From The Getgo - текст песни, бас-таба, видео

Печатать
Просмотров: 80
-------------------------------------------------------------------------------
                             THE GOIN' GETS TOUGH FROM THE GETGO - Ween
-------------------------------------------------------------------------------
Tabbed by: Tyler
E-mail: hill.tyler63@yahoo.com

Tuning: Standard

I recommend that you learn the song to this live version
http://www.youtube.com/watch?v=Y_SRqCMwUm4 rather than the studio version because the 
live version's bass is a lot
easier to hear and the riffs are played in a really weird order on the studio version 
(e.g. sometimes the chorus riff will be played during one of the verses and vice versa) which
makes it a pain to try to play along too.

Intro/Verse
G|---------------------------------------------------------------------------|
D|---------------------------------------------------------------------------|
A|-4-----7-------------------------------------------------------------------|
E|-------------0---3---2-------1-2-------------------------------------------|

I'm pretty sure the bassist sometimes plays the Intro/Verse riff without the open
E-note. Sometimes he also plays the 0 3 2 1 2 an octave higher. There doesn't seem to be any
pattern to when he plays either of these variations so I'd just play whatever you feel like.

Chorus
G|---------------------------------------------------------------------------|
D|-----------------------------------------------4b--------------------4-----|
A|-4-7---4-7---4-7---4-7----------------x3-then-----4b--------x5-then--------|
E|-----2-----2-----2-----2--2---1-2--------------------4b-2b-----------------|
Добавлено: 19.07.2013
Другие материалы по этой песне:
  • Аккорды и текст

Страница создана 24.07.2012
http://primanota.ru/ween/the-goin-gets-tough-from-the-getgo-chords.htm
Привет, Гость.
Предлагаем пройти революционный курс по гитаре.
Подарок от PrimaNota.Ru, забирай!