PrimaNota.ru - самый крупный в мире бесплатный архив песенных текстов, аккордов, табулатур и нот


Ween - Ooh Vah Lah - таба, видео

Регистрация Запомнить меня
Войти через:  Facebook Google Twitter Vk Yandex Mail.ru

Ween - Ooh Vah Lah - таба, видео

Печатать
Просмотров: 78
-------------------------------------------------------------------------------
                             OOH VAH LAH - Ween
-------------------------------------------------------------------------------
Tabbed by: Russell Pinkston
Email: russpinkston@gmail.com

Another great track off the Caesar Demos.
This one is pretty simple, but the lyrics are weird, even by Ween standards. 
I tried my best to pick out the words but they're probably 90% wrong.

Tuning: Standard

e|-----------------------------------------------------------------------|
B|-----------------------------------------------------------------------|
G|-----------------------------------------------------------------------|
D|-----------7~---------------7~---------------7~-------5~----3---3--3p0-|
A|---5---7---5~-------5---7---5~-------5---7---5~-------3~--0-1p0-1--1p0-|
E|---3---5------------3---5------------3---5-----------------------------|

Ooh la la la la la la la la

e|-----------------------------------------------------------------------|
B|-----------------------------------------------------------------------|
G|-----------------------------------------------------------------------|
D|-----5~---------------5~---------------5~-------------5~----3---3--3p0-|
A|-------3h5-5~(\)--------3h5-5~(\)--------3h5-5~(\)----3~--0-1p0-1--1p0-|
E|-3-3--------------3-3--------------3-3---------------------------------| x2

All say, all day as I sit lays in the sun.
Green pie and the apple tie. It made the consumption fun.

Tricky Dick's got some lick to smoke so prop me up if you please.
Stumpy eyes tell lies but you can't disguise the truth.

e|-----------------------------------------------------------------------|
B|-----------------------------------------------------------------------|
G|-----------------------------------------------------------------------|
D|-----------7~---------------7~---------------7~-------5~----3---3--3p0-|
A|---5---7---5~-------5---7---5~-------5---7---5~-------3~--0-1p0-1--1p0-|
E|---3---5------------3---5------------3---5-----------------------------|

"Ooh vah lah, boo to mootey," he sang.
"Ooh vah lah, boo to mootey."

e|-----------------------------------------------------------------------|
B|-----------------------------------------------------------------------|
G|-----------------------------------------------------------------------|
D|-----5~---------------5~---------------5~-------------5~----3---3--3p0-|
A|-------3h5-5~(\)--------3h5-5~(\)--------3h5-5~(\)----3~--0-1p0-1--1p0-|
E|-3-3--------------3-3--------------3-3---------------------------------| x2

Dreadlock in the moonlight and bald head in the sun
Lumps dried up. I pulverize and feed to the young.

Like a nick off the Asian barrel, what kind of trick do you have up your sleeve?
Plug it up, put it back, go in and rescue me.

e|-----------------------------------------------------------------------|
B|-----------------------------------------------------------------------|
G|-----------------------------------------------------------------------|
D|-----------7~---------------7~---------------7~-------5~----3---3--3p0-|
A|---5---7---5~-------5---7---5~-------5---7---5~-------3~--0-1p0-1--1p0-|
E|---3---5------------3---5------------3---5-----------------------------|

"Ooh vah lah, boo to mootey," he sang.
"Ooh vah lah, boo to mootey."

e|------|
B|------|
G|------|
D|------|
A|--5---|
E|--4---| repeat for the outro

I didn't bother with the solo, as it is far too brown for the likes of me.

Thanks, Ween.
-Russell


************************************

| /   slide up
| \   slide down
| h   hammer-on
| p   pull-off
| ~   vibrato
| +   harmonic
| x   Mute note
| b   Bend
| pb  Pre-bend
| br  Bend release
| pbr Pre-bend release
| brb Bend release bend

************************************
Добавлено: 18.09.2013
Другие материалы по этой песне:
  • Аккорды и текст

Страница создана 18.09.2013
http://primanota.ru/ween/ooh-vah-lah-chords.htm
Привет, Гость.
Предлагаем пройти революционный курс по гитаре.
Подарок от PrimaNota.Ru, забирай!