PrimaNota.ru - самый крупный в мире бесплатный архив песенных текстов, аккордов, табулатур и нот


Ween - Mountains And Buffalos - таба, видео

Регистрация Запомнить меня
Войти через:  Facebook Google Twitter Vk Yandex Mail.ru

Ween - Mountains And Buffalos - таба, видео

Печатать
Просмотров: 34
Main riff :
G D G6 D

E||---7-------2--------0-------2------||
B||---8-------3--------3-------3------||
G||---7-------2--------0-------2------|| 
D||---0-------0--------2-------0------||
A||---x-------x--------0-------x------||
E||---x-------x--------x-------x------||

Intro :

Main Riff x4

Verses :

G6
E||---0--0--0--0--0--0--0--0--0--0--0--0--0--0--0--0--||
B||---3--3--3--3--3--3--3--3--3--3--3--3--3--3--3--3--||
G||---0--0--0--0--0--0--0--0--0--0--0--0--0--0--0--0--||
D||---2--2--2--2--2--2--2--2--2--2--2--2--2--2--2--2--||
A||---0--0--0--0--0--0--0--0--0--0--0--0--0--0--0--0--||
E||---x--x--x--x--x--x--x--x--x--x--x--x--x--x--x--x--||
pm-----------------------------------------------

Main riff x2

G6
E||---0--0--0--0--0--0--0--0--0--0--0--0--0--0--0--0--||
B||---3--3--3--3--3--3--3--3--3--3--3--3--3--3--3--3--||
G||---0--0--0--0--0--0--0--0--0--0--0--0--0--0--0--0--||
D||---2--2--2--2--2--2--2--2--2--2--2--2--2--2--2--2--||
A||---0--0--0--0--0--0--0--0--0--0--0--0--0--0--0--0--||
E||---x--x--x--x--x--x--x--x--x--x--x--x--x--x--x--x--||
pm-----------------------------------------------

 

Main riff x1

C Am G F# 
E||--0------0-----x-----x-----------------------------------------------||
B||--1------1-----x-----x-----------------------------------------------||
G||--0------2-----0-----3-----------------------------------------------||
D||--2------2-----5-----4-----------------------------------------------||
A||--3------0-----5-----4-----------------------------------------------||
E||--x------x-----x-----x-----------------------------------------------||

Em A C D C D C C7M9 
E||--0------------0------------0-----2-----0-----2---------0-----0-------||
B||--0------------2------------1-----3-----1-----3---------1-----1-------||
G||--0------------2---- x6 ----0-----2-----0-----2-- x3 ---0-----0-------||
D||--2------------2------------2-----0-----2-----0---------2-----0-------||
A||--2------------0------------3-----x-----3-----x---------3-----2-------||
E||--0------------x------------x-----x-----x-----x---------x-----x-------||

Main riff x2

End with 4 times the main riff instead of 2
Добавлено: 08.03.2016
Другие материалы по этой песне:
  • Аккорды и текст

Страница создана 08.03.2016
http://primanota.ru/ween/mountains-and-buffalos-chords.htm
Привет, Гость.
Предлагаем пройти революционный курс по гитаре.
Подарок от PrimaNota.Ru, забирай!