PrimaNota.ru - самый крупный в мире бесплатный архив песенных текстов, аккордов, табулатур и нот


Wednesday Night Heroes - Defenceless - таба, видео

Регистрация Запомнить меня
Войти через:  Facebook Google Twitter Vk Yandex Mail.ru

Wednesday Night Heroes - Defenceless - таба, видео

Печатать
Просмотров: 74
-----------------------------------------------------------------------------
                     Defenceless – Wednesday Night Heroes 
-----------------------------------------------------------------------------

Tabbed by: Sudor de Huevos Kevin
kevinsk8punk@hotmail.com
http://www.911tabs.com/

Guitar tab.

Intro 
e|--------------------------------------------------------------------------|
B|--------------------------------------------------------------------------|
G|---------------------7-7-7---------------5-5-5----------------------------|
D|---7-------7-7-7-----7-7-7-----5-5-5-----5-5-5----------------------------|
A|---7-------7-7-7-----5-5-5-----5-5-5-----3-3-3----------------------------|
E|---5-------5-5-5---------------3-3-3--------------------------------------|

Chorus
e|-----------------------------------------------------------------------|
B|-----------------------------------------------------------------------|
G|---------------7-9-7-9-------------5-5-5-5-----------------------------|
D|---7-7-7-7-----7-9-7-9---5-5-5-5---5-5-5-5-----------------------------| x4
A|---7-7-7-7-----5-7-5-7---5-5-5-5---3-3-3-3-----------------------------|
E|---5-5-5-5---------------3-3-3-3---------------------------------------|

Verse
e|-----------------------------------------------------------------------|
B|-----------------------------------------------------------------------|
G|--------------11-11-11-11----7-7-7-7-----9-----------------------------|
D|---9-9-9-9----11-11-11-11----7-7-7-7-----9---7-------------------------| X4
A|---9-9-9-9----9—-9-—9--9-----5-5-5-5-----7---7-------------------------|
E|---7-7-7-7-----------------------------------5-------------------------|

 In the bass solo the guitar just plays this
e|-----------------------------------------------------------------------|
B|-----------------------------------------------------------------------|
G|-----------------------------------------------------------------------|
D|--7--------------------------------------------------------------------|
A|--7--------------------------------------------------------------------|
E|--5--------------------------------------------------------------------|

http://www.myspace.com/wnheroes
Добавлено: 12.03.2012
Другие материалы по этой песне:
  • Аккорды и текст

Страница создана 12.03.2012
http://primanota.ru/wednesday-night-heroes/defenceless-chords.htm
Привет, Гость.
Предлагаем пройти революционный курс по гитаре.
Подарок от PrimaNota.Ru, забирай!