PrimaNota.ru - самый крупный в мире бесплатный архив песенных текстов, аккордов, табулатур и нот


Wednesday 13 - Too Fast For Blood - бас-таба, видео

Регистрация Запомнить меня
Войти через:  Facebook Google Twitter Vk Yandex Mail.ru

Wednesday 13 - Too Fast For Blood - бас-таба, видео

Печатать
Просмотров: 73
-----------------------------------------------------------------------------
                             Too Fast For Blood - Wednesday 13
-----------------------------------------------------------------------------
Tabbed by: Andu Needle
E-mail: sulfur_in_my_lungs@yahoo.com

Intro:

F|-----------------------------------------------|
C|-----------------------------------------------|
G|-55-------55-------55--------------------------|
C|----00000----00000----00000-00331--------------|(x2)

Verse:

F|-----------------------------------------------|
C|-----------------------------------------------|
G|-55-------55-------55--------------------------|
C|----00000----00000----00000-00331--------------|(x2)

Pre chorus:

F|-----------------------------------------------|
C|-----------------------------------------------|
G|-55-------55-------55--------------------------|
C|----00000----00000----00000-00331--------------|

F|-----------------------------------------------|
C|-----------------------------------------------|
G|-55-------55-------55--------------------------|
C|----00000----00000----00000-33333--------------|

Chorus:

F|-----------------------------------------------|
C|-----------------------------------------------|
G|-55-------55-------55--------------------------|
C|----00000----00000----00000-00331--------------|(x3)

F|-----------------------------------------------|
C|-----------------------------------------------|
G|-55-------55-------55--------------------------|
C|----00000----00000----00000-33333--------------|

Main riff:

F|-----------------------------------------------|
C|-----------------------------------------------|
G|-55-------55-------55--------------------------|
C|----00000----00000----00000-00331--------------|(x2)

Verse 2 is the same as the first one!
Pre chorus 2 is the same as the first one!
Chorus 2 is the same as the first one!

Bridge and solo:

F|-----------------------------------------------|
C|-----------------------------------------------|
G|-----------------------------------------------|
C|-6-53530-0000000-------------------------------|

F|-----------------------------------------------|
C|-----------------------------------------------|
G|-----------------------------------------------|
C|-6-53530-6666666-------------------------------|

During the bridge and the solo you play this parts for 4 times. But the 4th time it goes 
like this:

F|-----------------------------------------------|
C|-----------------------------------------------|
G|-----------------------------------------------|
C|-6-53530-0000000-------------------------------|

F|-----------------------------------------------|
C|-----------------------------------------------|
G|-----------------------------------------------|
C|-6-53530-33333---------------------------------|

Chorus again!
Bridge part again!
Добавлено: 10.10.2013
Другие материалы по этой песне:

Страница создана 15.08.2013
http://primanota.ru/wednesday-13/too-fast-for-blood-chords.htm
Привет, Гость.
Предлагаем пройти революционный курс по гитаре.
Подарок от PrimaNota.Ru, забирай!