PrimaNota.ru - самый крупный в мире бесплатный архив песенных текстов, аккордов, табулатур и нот


Wednesday 13 - Til Death Do Us Party - таба, видео

Регистрация Запомнить меня
Войти через:  Facebook Google Twitter Vk Yandex Mail.ru

Wednesday 13 - Til Death Do Us Party - таба, видео

Печатать
Просмотров: 85
Song: Til Death Do Us Party
Band: Wednesday 13
Album: Fang Bang
Tabber: Mosher666

**UPDATED** 2/1/2010

Key:
. = Palm mute
~ = Vibrato

Intro: (x2)
E|---------------------------------------------------------|
B|---------------------------------------------------------|
G|-------------------------------9-9-9-9-9-9-9-9-9-9-9-9-9-|
D|--xxxx-7-7-7-7-7-7-7-7-7-7-7-7-9-9-9-9-9-9-9-9-9-9-9-9-9-|
A|--xxxx-7-7-7-7-7-7-7-7-7-7-7-7-7-7-7-7-7-7-7-7-7-7-7-7-7-|
E|--xxxx-5-5-5-5-5-5-5-5-5-5-5-5---------------------------|

E|---------------------------------------------------------------|
B|---------------------------------------------------------------|
G|---11-11-11-11-11-11-11-11-11-11-11-11-5-5-5-5-5-5-5-5-5-5-5-5-|
D|---11-11-11-11-11-11-11-11-11-11-11-11-5-5-5-5-5-5-5-5-5-5-5-5-|
A|---9--9--9--9--9--9--9--9--9--9--9--9--7-7-7-7-7-7-7-7-7-7-7-7-|
E|---------------------------------------------------------------|

Verse 1:(x2)

E|----------------------------------------------------|
B|----------------------------------------------------|
G|--------------------------9-9-9-9-9-9-9-9-9-9-9-9-9-|
D|--7-7-7-7-7-7-7-7-7-7-7-7-9-9-9-9-9-9-9-9-9-9-9-9-9-|
A|--7-7-7-7-7-7-7-7-7-7-7-7-7-7-7-7-7-7-7-7-7-7-7-7-7-|
E|--5-5-5-5-5-5-5-5-5-5-5-5---------------------------|
      . . . . . . . . . . .   . . . . . . . . . . . .

E|---------------------------------------------------------------|
B|---------------------------------------------------------------|
G|---11-11-11-11-11-11-11-11-11-11-11-11-7-7-7-7-7-7-7-7-7-7-7-7-|
D|---11-11-11-11-11-11-11-11-11-11-11-11-7-7-7-7-7-7-7-7-7-7-7-7-|
A|---9--9--9--9--9--9--9--9--9--9--9--9--5-5-5-5-5-5-5-5-5-5-5-5-|
E|---------------------------------------------------------------|
        .  .  .  .  .  .  .  .  .  .  .    . . . . . . . . . . .


Pre-Chorus: (x2)
E|---------------------------------|
B|---------------------------------|
G|----9-9-9-9-11-11-11-9-7-7-7-7-7-|
D|----7-7-7-7-11-11-11-7-7-7-7-7-7-|
A|----7-7-7-7-9--9--9--7-5-5-5-5-5-|
E|---------------------------------|

Chorus:

E|----------------------------------------------------|
B|----------------------------------------------------|
G|--------------------------9-9-9-9-9-9-9-9-9-9-9-9-9-|
D|--7-7-7-7-7-7-7-7-7-7-7-7-9-9-9-9-9-9-9-9-9-9-9-9-9-|
A|--7-7-7-7-7-7-7-7-7-7-7-7-7-7-7-7-7-7-7-7-7-7-7-7-7-|
E|--5-5-5-5-5-5-5-5-5-5-5-5---------------------------|

E|---------------------------------------------------------------|
B|---------------------------------------------------------------|
G|---11-11-11-11-11-11-11-11-11-11-11-11-7-7-7-7-7-7-7-7-7-7-7-7-|
D|---11-11-11-11-11-11-11-11-11-11-11-11-7-7-7-7-7-7-7-7-7-7-7-7-|
A|---9--9--9--9--9--9--9--9--9--9--9--9--5-5-5-5-5-5-5-5-5-5-5-5-|
E|---------------------------------------------------------------|


Verse 2: (x2) 
E|----------------------------------------------------|
B|----------------------------------------------------|
G|--------------------------9-9-9-9-9-9-9-9-9-9-9-9-9-|
D|--7-7-7-7-7-7-7-7-7-7-7-7-9-9-9-9-9-9-9-9-9-9-9-9-9-|
A|--7-7-7-7-7-7-7-7-7-7-7-7-7-7-7-7-7-7-7-7-7-7-7-7-7-|
E|--5-5-5-5-5-5-5-5-5-5-5-5---------------------------|
      . . . . . . . . . . .   . . . . . . . . . . . .

E|---------------------------------------------------------------|
B|---------------------------------------------------------------|
G|---11-11-11-11-11-11-11-11-11-11-11-11-7-7-7-7-7-7-7-7-7-7-7-7-|
D|---11-11-11-11-11-11-11-11-11-11-11-11-7-7-7-7-7-7-7-7-7-7-7-7-|
A|---9--9--9--9--9--9--9--9--9--9--9--9--5-5-5-5-5-5-5-5-5-5-5-5-|
E|---------------------------------------------------------------|
        .  .  .  .  .  .  .  .  .  .  .    . . . . . . . . . . .



Pre-Chorus 2: (x2)
E|---------------------------------|
B|---------------------------------|
G|----9-9-9-9-11-11-11-9-7-7-7-7-7-|
D|----7-7-7-7-11-11-11-7-7-7-7-7-7-|
A|----7-7-7-7-9--9--9--7-5-5-5-5-5-|
E|---------------------------------|

Chorus:

E|----------------------------------------------------|
B|----------------------------------------------------|
G|--------------------------9-9-9-9-9-9-9-9-9-9-9-9-9-|
D|--7-7-7-7-7-7-7-7-7-7-7-7-9-9-9-9-9-9-9-9-9-9-9-9-9-|
A|--7-7-7-7-7-7-7-7-7-7-7-7-7-7-7-7-7-7-7-7-7-7-7-7-7-|
E|--5-5-5-5-5-5-5-5-5-5-5-5---------------------------|

E|---------------------------------------------------------------|
B|---------------------------------------------------------------|
G|---11-11-11-11-11-11-11-11-11-11-11-11-7-7-7-7-7-7-7-7-7-7-7-7-|
D|---11-11-11-11-11-11-11-11-11-11-11-11-7-7-7-7-7-7-7-7-7-7-7-7-|
A|---9--9--9--9--9--9--9--9--9--9--9--9--5-5-5-5-5-5-5-5-5-5-5-5-|
E|---------------------------------------------------------------|

Post Chorus:
E|-------------------------------------------|
B|-------------------------------------------|
G|-9-9-9-9-9-9-9-9-11-11-11-11-9-11-11-11-11-|
D|-9-9-9-9-9-9-9-9-11-11-11-11-9-11-11-11-11-| (x2)
A|-7-7-7-7-7-7-7-7-9--9--9--9--7-9--9--9--9--|
E|-------------------------------------------|

E|--------------------------------------------------------------------|
B|--------------------------------------------------------------------|
G|-9-9-9-9-9-9-9-9-11-11-11-11-11-11-11-11--11-9-7-7-7-7-7-7-7-7-9-9-9|
D|-9-9-9-9-9-9-9-9-11-11-11-11-11-11-11-11--11-9-7-7-7-7-7-7-7-7-9-9-9|
A|-7-7-7-7-7-7-7-7-9--9--9--9--9--9--9--9---9--7-5-5-5-5-5-5-5-5-7-7-7|
E|--------------------------------------------------------------------|

Solo

E|----------------------------------------------------------------------|
B|----------------------------------------------------------------------|
G|----------------------------------------------------------------------|
D|----------14-16-14-141414-121212-111111-121212-111111-9-9-11-9-7------|
A|/12~-12-14------------------------------------------------------------|
E|----------------------------------------------------------------------|
                                    (these are 11s not 1s)
E|--------------------------------------------------------------------------|
B|------------15-17-19-17-171717-151515-141414-151515-141414-12-12-14-12-10~|
G|-14-14-14-14--------------------------------------------------------------|
D|--------------------------------------------------------------------------|
A|--------------------------------------------------------------------------|
E|--------------------------------------------------------------------------|

Chorus: (x2)

E|----------------------------------------------------|
B|----------------------------------------------------|
G|--------------------------9-9-9-9-9-9-9-9-9-9-9-9-9-|
D|--7-7-7-7-7-7-7-7-7-7-7-7-9-9-9-9-9-9-9-9-9-9-9-9-9-|
A|--7-7-7-7-7-7-7-7-7-7-7-7-7-7-7-7-7-7-7-7-7-7-7-7-7-|
E|--5-5-5-5-5-5-5-5-5-5-5-5---------------------------|

E|---------------------------------------------------------------|
B|---------------------------------------------------------------|
G|---11-11-11-11-11-11-11-11-11-11-11-11-7-7-7-7-7-7-7-7-7-7-7-7-|
D|---11-11-11-11-11-11-11-11-11-11-11-11-7-7-7-7-7-7-7-7-7-7-7-7-|
A|---9--9--9--9--9--9--9--9--9--9--9--9--5-5-5-5-5-5-5-5-5-5-5-5-|
E|---------------------------------------------------------------|

Ending:

E|---------------------------|
B|---------------------------|
G|----------9--11--9--7~-----|
D|----7---7-7--11--7--7~-----|
A|----7---7-7--9---7--5~-----|
E|----5---5------------------|



there :) finally done 
Добавлено: 19.04.2012
Другие материалы по этой песне:
  • Аккорды и текст

Страница создана 19.04.2012
http://primanota.ru/wednesday-13/til-death-do-us-party-chords.htm
Привет, Гость.
Предлагаем пройти революционный курс по гитаре.
Подарок от PrimaNota.Ru, забирай!