PrimaNota.ru - самый крупный в мире бесплатный архив песенных текстов, аккордов, табулатур и нот


Wednesday 13 - Over Your Dead Body - бас-таба, видео

Регистрация Запомнить меня
Войти через:  Facebook Google Twitter Vk Yandex Mail.ru

Wednesday 13 - Over Your Dead Body - бас-таба, видео

Печатать
Просмотров: 94
-------------------------------------------------------------------------------
                             Over Your Dead Body - Wednesday 13
-------------------------------------------------------------------------------
Tabbed by: Andu Needle
E-mail: sulfur_in_my_lungs@yahoo.com

Intro:

F|-------------------------------------------------------------------|
C|-------------------------------------------------------------------|
G|-----------------------------66-55---------------------------------|
C|-000-00-0-00-00-0-00-00-0-00---------------------------------------|

F|-------------------------------------------------------------------|
C|-------------------------------------------------------------------|
G|-------------------------------------------------------------------|
C|-000-00-0-00-00-0-00-00-0-00-88-77---------------------------------|

Verse:

F|-------------------------------------------------------------------|
C|-------------------------------------------------------------------|
G|-----------------------------66-55---------------------------------|
C|-000-00-0-00-00-0-00-00-0-00---------------------------------------|
                                                                      >(x2)
F|-------------------------------------------------------------------|
C|-------------------------------------------------------------------|
G|-------------------------------------------------------------------|
C|-000-00-0-00-00-0-00-00-0-00-88-77---------------------------------|

Pre chorus:

F|-------------------------------------------------------------------|
C|-------------------------------------------------------------------|
G|------5-55------5-55------5-55------66-55--------------------------|
C|-0000------0000------0000------0000--------------------------------|
                                                                      >(x2)
F|-------------------------------------------------------------------|
C|-------------------------------------------------------------------|
G|------5-55------5-55------5-55-------------------------------------|
C|-0000------0000------0000------0000-88-77--------------------------|

Chorus:

F|-------------------------------------------------------------------|
C|-------------------------------------------------------------------|
G|----6-5-------------------6-5--------------------------------------|
C|-00-----0-8-7-0-1~-11--00-----0-8-7-0-8~-88------------------------|(x2)

Intro is the same as the first one!
Verse 2 is the same as the first one!
Pre chorus 2 is the same as the first one!
Chorus 2 is the same as the first one!

Bridge:

F|-------------------------------------------------------------------|
C|-------------------------------------------------------------------|
G|------6\5-------------------------6\5------------------------------|
C|-0000-----00-8\7-00-111-111--0000-----00-8\7-00-888-777------------|(x4)

F|-------------------------------------------------------------------|
C|-------------------------------------------------------------------|
G|------6\5------------------------6\5-------------------------------|
C|-0000-----00-8\7-00-111111--0000-----00-8\7-00-888777--------------|(x2)

Pre chorus 3 is the same as the others!
Chorus 3 is the same as the others!

Ending:

F|-------------------------------------------------------------------|
C|-------------------------------------------------------------------|
G|------6\5-------------------------6\5------------------------------|
C|-0000-----00-8\7-00-111-111--0000-----00-8\7-00-888777-------------| (til fade out)

| /  slide up
Добавлено: 13.07.2015
Другие материалы по этой песне:
  • Аккорды и текст

Страница создана 13.07.2015
http://primanota.ru/wednesday-13/over-your-dead-body-chords.htm
Привет, Гость.
Предлагаем пройти революционный курс по гитаре.
Подарок от PrimaNota.Ru, забирай!