PrimaNota.ru - самый крупный в мире бесплатный архив песенных текстов, аккордов, табулатур и нот


Wednesday 13 - Morgue Than Words - текст песни, таба, бас-таба, видео

Регистрация Запомнить меня
Войти через:  Facebook Google Twitter Vk Yandex Mail.ru

Wednesday 13 - Morgue Than Words - текст песни, таба, бас-таба, видео

Печатать
Просмотров: 166
Wednesday 13 - Morgue than words!

Intro/Pre-Verse/Solo
D|---------------------|
A|---------------------|
F|---------------------|
C|-5----5----5----5----|
G|-3----3----3----3----|
C|---------------------|

Verse/Chorus
D|-------------------------|
A|-------------------------|
F|-------------------------|
C|-5-----------------------|
G|-3-----5-----7-----3-----|
C|-------5-----7-----3-----|

Pre-Chorus/Solo
D|-------------------------|
A|-------------------------|
F|-------------------------|
C|-5-----------------------|
G|-3(x8)-5-----7-----3-----|
C|-------5(x8)-7(x8)-3(x8)-|

Solo
D|--------------------------------|
A|--------------------------------|
F|-5~--5-7PH~--7-9~--9-10-9-7-9p7-|
C|--------------------------------|
G|--------------------------------|
C|--------------------------------|

D|-------------------------8~------8~-----|
A|----------------------8~----------------|
F|-5~--5-7~--7-9~--9-10-------------------|
C|----------------------------------------|
G|----------------------------------------|
C|----------------------------------------|
Добавлено: 16.04.2012
Другие материалы по этой песне:

Страница создана 22.02.2012
http://primanota.ru/wednesday-13/morgue-than-words-chords.htm
Привет, Гость.
Предлагаем пройти революционный курс по гитаре.
Подарок от PrimaNota.Ru, забирай!