PrimaNota.ru - самый крупный в мире бесплатный архив песенных текстов, аккордов, табулатур и нот


Wednesday 13 - Hail Ming - бас-таба, видео

Регистрация Запомнить меня
Войти через:  Facebook Google Twitter Vk Yandex Mail.ru

Wednesday 13 - Hail Ming - бас-таба, видео

Печатать
Просмотров: 96
-----------------------------------------------------------------------------
                             Hail Ming - Wednesday 13
-----------------------------------------------------------------------------
Tabbed by: Andu Needle
E-mail: sulfur_in_my_lungs@yahoo.com

Intro 1:

F|----------------------------------------------------|
C|----------------------------------------------------|
G|----------------------------------------------------|
C|-33333333-3333--------------------------------------|(x16)

Intro 2:

F|----------------------------------------------------|
C|----------------------------------------------------|
G|----------------------------------------------------|
C|-4-333-333-333-333-333-333-333----------------------|

F|----------------------------------------------------|
C|----------------------------------------------------|
G|----------------------------------------------------|
C|-4-333-333-333-333-000-000-000----------------------|

You play this parts twice.

Verse:

F|----------------------------------------------------|
C|----------------------------------------------------|
G|----------------------------------------------------|
C|-4-333-333-333-333-333-333-333----------------------|

F|----------------------------------------------------|
C|----------------------------------------------------|
G|----------------------------------------------------|
C|-4-333-333-333-333-000-000-000----------------------|

You play this parts for 4 times.

Pre chorus part:

F|----------------------------------------------------|
C|----------------------------------------------------|
G|----------------------------------------------------|
C|-33333333-3333--------------------------------------|(x2)

Chorus:

F|----------------------------------------------------|
C|----------------------------------------------------|
G|----------------------------------------------------|
C|-4-333-333-333-333-333-333-333----------------------|

F|----------------------------------------------------|
C|----------------------------------------------------|
G|----------------------------------------------------|
C|-4-333-333-333-333-000-000-000----------------------|

You play this parts twice.

Verse 2 is the same as the first one.
Pre chorus 2 is the same as the first one.
Chorus 2 is the same as the first one.

Bridge:

F|----------------------------------------------------|
C|----------------------------------------------------|
G|----------------------------------------------------|
C|-000-000-4-3~---------------------------------------|(x4)

Solo:

F|----------------------------------------------------|
C|----------------------------------------------------|
G|----------------------------------------------------|
C|-4-333-333-333-333-333-333-333----------------------|

F|----------------------------------------------------|
C|----------------------------------------------------|
G|----------------------------------------------------|
C|-4-333-333-333-333-000-000-000----------------------|

You play this parts for 4 time.

Chorus again.
After the last chorus is the bridge part again.

The rhythm is very tricky.
Добавлено: 15.11.2013
Другие материалы по этой песне:

Страница создана 15.11.2013
http://primanota.ru/wednesday-13/hail-ming-chords.htm
Привет, Гость.
Предлагаем пройти революционный курс по гитаре.
Подарок от PrimaNota.Ru, забирай!